Guitaretab - guitar tabs
Song name
# A B C D E F G H I J K L M N O P Q R S T U V W X Y Z

Avenged Sevenfold - Until The End tab

----------------------------------------------------------------------------
		    Until The End- Avenged Sevenfold
----------------------------------------------------------------------------
Tabbed by: Marcel
Home Page: http://www.youtube.com/user/tjeeta12

Tuning: Drop D (D A D G B E)

|Intro|

e|-------------------------------------------------------------------------|
B|----------------------------14/\14---11-12-14--------14/\----------------|
G|---------11-13/\13---11-----------------------11----------11-11-13-14-14/|
D|------11----------------11-----------------------11----------------------|
A|-9-12--------------------------------------------------------------------|
D|-------------------------------------------------------------------------|

e|-------------------------------------------------------------------------|
B|----------------------------14/\14---11-12-14--------14/\----------------|
G|---------11-13/\13---11-----------------------11----------11-11-13-14-14/|
D|------11----------------11-----------------------11----------------------|
A|-9-12--------------------------------------------------------------------|
D|-------------------------------------------------------------------------|

e|---------------------------12/14-----------------------------------------|
B|--------------14--14-15-12-----------------------------------------------|
G|-11-13-11-10-------------------------------------------------------------|
D|-------------------------------------------------------------------------|
A|-------------------------------------------------------------------------|
D|-------------------------------------------------------------------------|


|Chorus|

e|-------------------------------------------------------------------------|
B|-------------------------------------------------------------------------|
G|-------------------------------------------------------------------------|
D|--4--0--2--4-----4--0--2--4----------------------------------------------|
A|--4--0--2--2-----4--0--2--2----------------------------------------------|
E|--4--0--2--------4--0--2-------------------------------------------------|

|intro break Recap.|

e|-------------------------------------------------------------------------|
B|--------------------------14/\14---11-12-14--------14/\------------------|
G|---------11-13/\13--11----------------------11----------11-11-13-14-14/9/|
D|------11---------------11----------------------11------------------------|
A|-9-12--------------------------------------------------------------------|
D|-------------------------------------------------------------------------|

|Chorus 2 (solo background)|

e|-------------------------------------------------------------------------|
B|-------------------------------------------------------------------------|
G|-------------------------------------------------------------------------|
D|--4--3--6--7--------4--3--6--7-------------------------------------------|
A|--4--3--4--5--------4--3--4--5-------------------------------------------|
E|--4--3--3--4--------4--3--3--4-------------------------------------------|

|Solo 1|

e|-------------------------------------------------------------------------|
B|--------------17--18/(19)(19)\17-----------------------------------------|
G|-11--13-14--16--16---------------18-16-18/(19)\18------------------------|
D|-------------------------------------------------------------------------|
A|-------------------------------------------------------------------------|
E|-------------------------------------------------------------------------|
[ Tab from: http://www.guitaretab.com/a/avenged-sevenfold/173380.html ]
e|----------------------13-------------------------------------------------|
B|------------14/17\14--16/(17)\14-13/\/\----------------------------------|
G|-11--13-14--------------------------------11--13-14----------------------|
D|----------------------------------------------------12-14-12-11-12-11----|
A|-------------------------------------------------------------------------|
E|-------------------------------------------------------------------------|

e|-------------------17--16--19-16-19-12-13/(14)---------------------------|
B|-----------------14--14--14----------------------------------------------|
G|---11--13-14-------------------------------------------------------------|
D|-11----------12----------------------------------------------------------|
A|-------------------------------------------------------------------------|
E|-------------------------------------------------------------------------|

|Bridge|

e|-------------------------------------------------------------------------|
B|-------------------------------------------------------------------------|
G|-------------------------------------------------------------------------|
D|--4--6--7--9----4--6--7--9-----------------------------------------------|
A|--4--7--7--9----4--7--7--9-----------------------------------------------|
E|--4--6--7--9----4--6--7--9-----------------------------------------------|

|Solo 2|

e|-17-16-14------15/(16)\-13-14-16-14---------16/(17)\16-13--14------------|
B|---------14-------------------------14------------------------14---------|
G|-----------14-------------------------14-13---------------------14-13----|
D|-------------16----------------------------------------------------------|
A|-------------------------------------------------------------------------|
E|-------------------------------------------------------------------------|

e|-----16----16----16----16----16-------16----19----17----17-21/(22)\21----|
B|---14----14----14----14----14--14---14----17----15----15-----------------|
G|-11----13----13----13----13-------13----16----14----14-------------------|
D|-------------------------------------------------------------------------|
A|-------------------------------------------------------------------------|
E|-------------------------------------------------------------------------|

e|-----16----16----16----16----16-------16/(19)----19----/17----17---------|
B|---14----14----14----14----14--14---14---------17----15-----15-----------|
G|-11----13----13----13----13-------13---------16----14-----14-------------|
D|-------------------------------------------------------------------------|
A|-------------------------------------------------------------------------|
E|-------------------------------------------------------------------------|


e|--21/(22)\21-19-21-19--17------------------------------------------------|
B|-------------------------------------------------------------------------|
G|-------------------------------------------------------------------------|
D|-------------------------------------------------------------------------|
A|-------------------------------------------------------------------------|
E|-------------------------------------------------------------------------|

|Outro|

e|---------------|:-------------------------------------------------------:|
B|---------------|:-------------------------------------------------------:|
G|---------------|:-------------------------------------------------------:|
D|4------5-7-9\4-|:4-x5x5x5x5x5x5x5 5 -x4x4x4x4x4x4x4 4 -x5x5x5x5x5x5x5- 5:|
A|4------3-5-7\2-|:2-x3x3x3x3x3x3x3 3 -x2x2x2x2x2x2x2 2 -x3x3x3x3x3x3x3- 3:|
E|4--x4x4--------|:-------------------------------------------------------:|

e|-------------------------------------------------------------------------|
B|-------------------------------------------------------------------------|
G|-------------------------------------------------------------------------|
D|-4-----------------------------------------------------------------------|
A|-2-----------------------------------------------------------------------|
E|-------------------------------------------------------------------------|


| /  slide up (bend up)
| \  slide down (bend down)
| h  hammer-on
| p  pull-off
| ~  vibrato
| +  harmonic
| x  Mute note
============================================================================
Related for Until The End tab
Until The End chords by Avenged Sevenfold