Song name
# A B C D E F G H I J K L M N O P Q R S T U V W X Y Z

Avenged Sevenfold - Brompton Cocktail tab

-------------------------------------------------------------------------------
			     "Brompton Cocktail" --- Avenged Sevenfold 
-------------------------------------------------------------------------------


Tabbed by: [travis]


Tuning: Drop D: D A D G B E (low to high)


Key: F Major

Legend:
... = palm muted
/ = slide up
\ = slide down
h = hammer on
p = pull off
__ = hold bend
~ = vibrato
() = note barely heard, or bring bent note back to normal
* = feedback
W = wammy bar
-2 = how many steps you push down the wammy bar
h/ = pick once
p\ = pick once
b = bend
1 = full step bend
.5 = half step bend



++++++++++++

The first couple of seconds of this song is just percussion, and
some random feedback.


Intro:
Guitars 1 and 2:
e|-----------------------------------------------------------------------------|
B|-----------------------------------------------------------------------------|
G|-----------------------------------------------------------------------------|
D|-----------------------------------------------------------------------------|
A|-0---------------------------------------------------------------------------|
D|-0--0-0-0-0-3h/8--8--7~~~~--0-3-0-3h/12--0-8-0-7---0--0-0-0-0--3h/8--8-7~~~~-|
      .......                                           .......
                                       
Intro Continued:
Guitars 1 and 2:
e|-------------------------|
B|-------------------------|
G|-------------------------|
D|-------------------------|
A|-------------------------|
D|-0--3--0--3h/6--0--3~~~~-|

Play the whole intro twice in all.
+++++++++++++++++++++++++++++++++++++++++++++
Guitars 1 and 2:
"Out of time."
e|----------------------------|
B|----------------------------|
G|----------------------------| x2
D|----------------------------|
A|-0----0----0--0----0--------|
D|-0----0----0--0----0---8~~~-|
   ...................

+++++++++++++++++++++++++++++++++++++++++++++
Verse:
Guitars 1 and 2:
"Doc, I'm Dying..."
e|----------------------------|
B|----------------------------|
G|----------------------------|
D|----------------------------| x4
A|-0----0----0--0----0--------|
D|-0----0----0--0----0---7~~~-|
   ...................

+++++++++++++++++++++++++++++++++++++++++++++
Guitars 1 and 2: Play this once.
e|--------------------------------------------------------------------------------------|
B|--------------------------------------------------------------------------------------|
G|--------------------------------------------------------------------------------------|
D|---------------------------------------------------------------------------3--3--2--2-|
A|-0--0--0--8--0--0--7---0--0--0--5--0--0--7---0--0--0--5--5--3--3--0--0--0--5--5--4--4-|
D|-0--0--0--8--0--0--7---0--0--0--5--0--0--7---0--0--0--5--5--3--3--0--0--0-------------|

++++++++++++++++++++++++++++++++++++++++++++
Guitars 1 and 2: Play this once.
e|--------------------------------------------------------------|
B|--------------------------------------------------------------|
G|--------------------------------------------------------------|
D|--------------------------------------------------------------|
A|--------------8------------7------------------5------------7--|
D|-0-0-0-0-0-0--8---0-0-0-0--7-----0-0-0-0-0-0--5---0-0-0-0--7--|
   ...........      .......        ...........      .......

+++++++++++++++++++++++++++++++++++++++++++++
Guitars 1 and 2: Play this once.
e|---------------------------------------------------------|
B|---------------------------------------------------------|
G|---------------------------------------------------------|
D|------------------------------------------3--3---2----2--|
A|--------------5--5---3--3-----------------5--5---4----4--|
D|-0-0-0-0-0-0--5--5---3--3----0-0-0-0-0-0-----------------|
   ...........                 ...........
+++++++++++++++++++++++++++++++++++++++++++++
Guitars 1 and 2: Play this once.
e|---------------------------------------------------------------|
B|---------------------------------------------------------------|
G|---------------------------------------------------------------|
D|-3----------------3--5---------------5--2---------------2---8--|
A|-5--0-0-0---0-0---5--7--0-0-0--0-0---7--3--0-0-0--0-0---3--10--|
D|----0-0-0---0-0---------0-0-0--0-0---------0-0-0--0-0----------|
      ...........         ..........         ..........

++++++++++++++++++++++++++++++
Guitars 1 and 2: Play this once.
e|------------------------------------------------------------|
B|------------------------------------------------------------|
G|------------------------------------------------------------|
D|---------------8--7---------------7--2---------------2---8--|
A|-0-0-0--0-0---10--8--0-0-0--0-0---8--3--0-0-0--0-0---3--10--|
D|-0-0-0--0-0----------0-0-0--0-0---------0-0-0--0-0----------|
   ..........          ..........         ..........

++++++++++++++++++++++++++++++
Guitars 1 and 2: Play this once.
e|--------------------------------------|
B|--------------------------------------|
G|--------------------------------------|
D|---------------8--7-------7-----2--2--|
A|-0-0-0--0-0---10--8--0-0--8--0--3--3--|
D|-0-0-0--0-0----------0-0-----0--------|
   ..........          ...     .

++++++++++++++++++++++++++++++
Chorus
Guitars 1 and 2: Play this twice.
e|--------------------------------------------------------------------------------|
B|--------------------------------------------------------------------------------|
G|--------------------------------------------------------------------------------|
D|---------14---14-14---12---12--12---12--12-----2----2--2---3--5---7--7-7--------|
A|-0---0---12---12-12---10---10--10---10--10-----3----3--3---3--3---5--5-5---5--5-|
D|-0---0---12---12-12---10---10--10---10--10--0---------------------5--5-5---5--5-|


++++++++++++++++++++++++++++++
Verse 2:
Guitars 1 and 2:
e|----------------------------|
B|----------------------------|
G|----------------------------|
D|----------------------------| x4
A|-0----0----0--0----0--------|
D|-0----0----0--0----0---7~~~-|
   ...................

+++++++++++++++++++++++++++++++++++++++++++++
Guitars 1 and 2: Play this once.
e|--------------------------------------------------------------------------------------|
B|--------------------------------------------------------------------------------------|
G|--------------------------------------------------------------------------------------|
D|---------------------------------------------------------------------------3--3--2--2-|
A|-0--0--0--8--0--0--7---0--0--0--5--0--0--7---0--0--0--5--5--3--3--0--0--0--5--5--4--4-|
D|-0--0--0--8--0--0--7---0--0--0--5--0--0--7---0--0--0--5--5--3--3--0--0--0-------------|

++++++++++++++++++++++++++++++++++++++++++++
Guitars 1 and 2: Play this once.
e|--------------------------------------------------------------|
B|--------------------------------------------------------------|
G|--------------------------------------------------------------|
D|--------------------------------------------------------------|
A|--------------8------------7------------------5------------7--|
D|-0-0-0-0-0-0--8---0-0-0-0--7-----0-0-0-0-0-0--5---0-0-0-0--7--|
   ...........      .......        ...........      .......

+++++++++++++++++++++++++++++++++++++++++++++
Guitars 1 and 2: Play this once.
e|---------------------------------------------------------|
B|---------------------------------------------------------|
G|---------------------------------------------------------|
D|------------------------------------------3--3---2----2--|
A|--------------5--5---3--3-----------------5--5---4----4--|
D|-0-0-0-0-0-0--5--5---3--3----0-0-0-0-0-0-----------------|
   ...........                 ...........
+++++++++++++++++++++++++++++++++++++++++++++
Guitars 1 and 2: Play this once.
e|---------------------------------------------------------------|
B|---------------------------------------------------------------|
G|---------------------------------------------------------------|
D|-3----------------3--5---------------5--2---------------2---8--|
A|-5--0-0-0---0-0---5--7--0-0-0--0-0---7--3--0-0-0--0-0---3--10--|
D|----0-0-0---0-0---------0-0-0--0-0---------0-0-0--0-0----------|
      ...........         ..........         ..........

++++++++++++++++++++++++++++++
Guitars 1 and 2: Play this once.
e|------------------------------------------------------------|
B|------------------------------------------------------------|
G|------------------------------------------------------------|
D|---------------8--7---------------7--2---------------2---8--|
A|-0-0-0--0-0---10--8--0-0-0--0-0---8--3--0-0-0--0-0---3--10--|
D|-0-0-0--0-0----------0-0-0--0-0---------0-0-0--0-0----------|
   ..........          ..........         ..........

++++++++++++++++++++++++++++++
Guitars 1 and 2: Play this once.
e|--------------------------------------|
B|--------------------------------------|
G|--------------------------------------|
D|---------------8--7-------7-----2--2--|
A|-0-0-0--0-0---10--8--0-0--8--0--3--3--|
D|-0-0-0--0-0----------0-0-----0--------|
   ..........          ...     .

++++++++++++++++++++++++++++++
Chorus 2
Guitars 1 and 2: Play this twice.
e|--------------------------------------------------------------------------------|
B|--------------------------------------------------------------------------------|
G|--------------------------------------------------------------------------------|
D|---------14---14-14---12---12--12---12--12-----2----2--2---3--5---7--7-7--------|
A|-0---0---12---12-12---10---10--10---10--10--0--3----3--3---3--3---5--5-5---5--5-|
D|-0---0---12---12-12---10---10--10---10--10--0---------------------5--5-5---5--5-|

++++++++++++++++++++++++++++++
Guitars 1 and 2: Play this once.
"And I take my life tonight..."
e|----------------------------------------------------------------------------|
B|------------------------------------------3-3-3-3-3-3-3-3-------------------|
G|-9-9-9-9-9-9-9----------------------------5-5-5-5-5-5-5-5-------------------|
D|-7-7-7-7-7-7-7---12-12-12-12-12-12-12-12--5-5-5-5-5-5-5-5-------------------|
A|-5-5-5-5-5-5-5---10-10-10-10-10-10-10-10--3-3-3-3-3-3-3-3--3h/5-5-5-5-5-5-0-|
D|-0-0-0-0-0-0-0---10-10-10-10-10-10-10-10--3-3-3-3-3-3-3-3--3h/5-5-5-5-5-5-0-|

++++++++++++++++++++++++++++++
Guitars 1 and 2:
"And leave how I arrived. So alive..."
e|---------------------------------------------------------------------------|
B|------------------------------------------3-3-3-3-3-3-3-3------------------|
G|-9-9-9-9-9-9-9----------------------------5-5-5-5-5-5-5-5------------------|
D|-7-7-7-7-7-7-7---12-12-12-12-12-12-12-12--5-5-5-5-5-5-5-5------------------|
A|-5-5-5-5-5-5-5---10-10-10-10-10-10-10-10--3-3-3-3-3-3-3-3--5-5-5-5-5-5-5-5-|
D|-0-0-0-0-0-0-0---10-10-10-10-10-10-10-10--3-3-3-3-3-3-3-3--5-5-5-5-5-5-5-5-|

++++++++++++++++++++++++++++++
Cool Riff:
Guitars 1 and 2: Play this twice.
e|----------------------------------------------------|
B|----------------------------------------------------|
G|----------------------------------------------------|
D|----------------------------------------------------|
A|-/8-7-----8-7-----7---7-8\-5-3-----5-3-----3---3-5/-|
D|------0-0-----0-0---0----------2-2-----2-2---2------|
        ...     ...   .          ...     ...   .
 
++++++++++++++++++++++++++++++
Guitars 1 and 2: Play this once.
e|-----------------------------------------------------------|
B|-----------------------------------------------------------|
G|-----------------------------------------------------------|
D|-----------------------------------------------------------|
A|-/12-10-----12-10-----10---10-12\-10-8-----10-8-----8---8\-|
D|--------8-8-------8-8----8-------------6-6------6-6---6----|
          ...       ...    .             ...      ...   .

++++++++++++++++++++++++++++++++
Guitars 1 and 2: Play this twice.
e|----------------------------------------------------|
B|----------------------------------------------------|
G|----------------------------------------------------|
D|----------------------------------------------------|
A|-/8-7-----8-7-----7---7-8\-5-3-----5-3-----3---3-5/-|
D|------0-0-----0-0---0----------2-2-----2-2---2------|
        ...     ...   .          ...     ...   .
 

Guitar 3: The * means feedback.
e|------------------------------------------------------------------------|
B|------------------------------------------------------------------------|
G|-5h/7~~~~~--5--5h/9----(9)\5---(5)*~~~~~(5)\2---5---(5)h/7~~~~~(7)p\5/9-|
D|------------------------------------------------------------------------|
A|------------------------------------------------------------------------|
D|------------------------------------------------------------------------|

++++++++++++++++++++++++++++++
Guitars 1 and 2: Play this once.
e|-----------------------------------------------------------|
B|-----------------------------------------------------------|
G|-----------------------------------------------------------|
D|-----------------------------------------------------------|
A|-/12-10-----12-10-----10---10-12\-10-8-----10-8-----8---8\-|
D|--------8-8-------8-8----8-------------6-6------6-6---6----|
          ...       ...    .             ...      ...   .

Guitar 3:
e|-------------------------------------------------------------------------|
B|-------------------------------------------------------------------------|
G|-(9)p\5*~~~~(5)p\2---5--(5)h/7~~~~(7)*h/9--(9)h/10*-(10)h/12h/13*--13~~~-|
D|-------------------------------------------------------------------------|
A|-------------------------------------------------------------------------|
D|-------------------------------------------------------------------------|


++++++++++++++++++++++++++++++++++
Pre Solo:
Guitars 1 and 2:
e|---------------------------------------------------|
B|---------------------------------------------------|
G|---------------------------------------------------|
D|----------------------------------------5\2--2---3-|
A|-0---2----(2)/8---5---7\3----5------0---7\4--4---5-|
D|-0---2----(2)/8---5---7\3----5------0--------------|


Guitar 3: The W means push the wammy bar down.
                           1                                -2
e|------------------------------------------------------------------|
B|------------------------------------------------------------------|
G|-(13)h/15--(15)h/17--(17)b----(17)~~~~~~~~~~(17)*~~~~~~(17)w\-----|
D|-------------------------------------------------------------\----|
A|--------------------------------------------------------------\---|
D|---------------------------------------------------------------\--|

+++++++++++++++++++++++++++++++++
Solo:
Guitars 1 and 2: Play this riff twice over whole solo.
e|---------------------------------------------------|
B|---------------------------------------------------|
G|---------------------------------------------------|
D|----------------------------------------5\2--2---3-|
A|-0---2----(2)/8---5---7\3----5------0---7\4--4---5-|
D|-0---2----(2)/8---5---7\3----5------0--------------|

Guitar 3: use a wah wah pedal.
     1______  1__________  1______  1____________
e|-17--------------------17-------17-------------|
B|-20b------20b~~~~~~~~~~20b------20b~~~~~~~~~~~~|
G|-----------------------------------------------|
D|-----------------------------------------------|
A|-----------------------------------------------|
D|-----------------------------------------------|

+++++++++++++++++++++++++++++++++++
Guitar 3: rock the wah wah pedal back and forth real fast.
e|-----------------------------8h/13\----------14p13h15p13---------|
B|-----10h13----10p8-10p8-11p9-------11p9-13p10-----------11h13p11-|
G|-9h10-----9h10---------------------------------------------------|
D|-----------------------------------------------------------------|
A|-----------------------------------------------------------------|
D|-----------------------------------------------------------------|

+++++++++++++++++++++++++++++++++++
Guitar 3: rock the wah wah pedal back and forth real fast.
                                                             1_____________
e|-------10-----------------------------------------------------------------|
B|-10-13----13-10-------------------10----------10---------13b~~~~~~~~~~~~~-|
G|----------------13-12-10-12-10h12----12p10-12----9-12---------------------|
D|------------------------------------------------------12------------------|
A|--------------------------------------------------------------------------|
D|--------------------------------------------------------------------------|

+++++++++++++++++++++++++++++++++++
Guitars 1 and 2: Play this once.
e|---------------------------------------------------------------|
B|---------------------------------------------------------------|
G|---------------------------------------------------------------|
D|-3----------------3--5---------------5--2---------------2---8--|
A|-5--0-0-0---0-0---5--7--0-0-0--0-0---7--3--0-0-0--0-0---3--10--|
D|----0-0-0---0-0---------0-0-0--0-0---------0-0-0--0-0----------|
      ...........         ..........         ..........

++++++++++++++++++++++++++++++
Guitars 1 and 2: Play this once.
e|------------------------------------------------------------|
B|------------------------------------------------------------|
G|------------------------------------------------------------|
D|---------------8--7---------------7--2---------------2---8--|
A|-0-0-0--0-0---10--8--0-0-0--0-0---8--3--0-0-0--0-0---3--10--|
D|-0-0-0--0-0----------0-0-0--0-0---------0-0-0--0-0----------|
   ..........          ..........         ..........

++++++++++++++++++++++++++++++
Guitars 1 and 2: Play this once.
e|--------------------------------------|
B|--------------------------------------|
G|--------------------------------------|
D|---------------8--7-------7-----2--2--|
A|-0-0-0--0-0---10--8--0-0--8--0--3--3--|
D|-0-0-0--0-0----------0-0-----0--------|
   ..........          ...     .

++++++++++++++++++++++++++++++
Chorus 3:
Guitars 1 and 2: Play this twice.
e|--------------------------------------------------------------------------------|
B|--------------------------------------------------------------------------------|
G|--------------------------------------------------------------------------------|
D|---------14---14-14---12---12--12---12--12-----2----2--2---3--5---7--7-7--------|
A|-0---0---12---12-12---10---10--10---10--10--0--3----3--3---3--3---5--5-5---5--5-|
D|-0---0---12---12-12---10---10--10---10--10--0---------------------5--5-5---5--5-|

++++++++++++++++++++++++++++++
Guitars 1 and 2: Play this once.
"And I take my life tonight..."
e|----------------------------------------------------------------------------|
B|------------------------------------------3-3-3-3-3-3-3-3-------------------|
G|-9-9-9-9-9-9-9----------------------------5-5-5-5-5-5-5-5-------------------|
D|-7-7-7-7-7-7-7---12-12-12-12-12-12-12-12--5-5-5-5-5-5-5-5-------------------|
A|-5-5-5-5-5-5-5---10-10-10-10-10-10-10-10--3-3-3-3-3-3-3-3--3h/5-5-5-5-5-5-0-|
D|-0-0-0-0-0-0-0---10-10-10-10-10-10-10-10--3-3-3-3-3-3-3-3--3h/5-5-5-5-5-5-0-|

++++++++++++++++++++++++++++++
Guitars 1 and 2:
"And leave how I arrived. So alive..."
e|---------------------------------------------------------------------------|
B|------------------------------------------3-3-3-3-3-3-3-3------------------|
G|-9-9-9-9-9-9-9----------------------------5-5-5-5-5-5-5-5------------------|
D|-7-7-7-7-7-7-7---12-12-12-12-12-12-12-12--5-5-5-5-5-5-5-5------------------|
A|-5-5-5-5-5-5-5---10-10-10-10-10-10-10-10--3-3-3-3-3-3-3-3--5-5-5-5-5-5-5-5-|
D|-0-0-0-0-0-0-0---10-10-10-10-10-10-10-10--3-3-3-3-3-3-3-3--5-5-5-5-5-5-5-5-|

++++++++++++++++++++++++++++++
Outro:
Guitars 1 and 2: 
              x2                End of 2nd time only.
e|---------------------------|-|-----|
B|---------------------------|O|-----|
G|---------------------------|-|-----|
D|---------------------------|-|--3--|
A|-0----0----0--0----0-------|O|--0--|
D|-0----0----0--0----0---8~~~|-|--0--|
   ...................

Please Rate And Comment My Tab.
[travis]
Tap to rate this tab
 
# A B C D E F G H I J K L M N O P Q R S T U V W X Y Z