Guitaretab - guitar tabs
Song name
# A B C D E F G H I J K L M N O P Q R S T U V W X Y Z

Avenged Sevenfold - Unbound Wild Ride tab

Hey everyone, this is my favorite song (at the moment) off of A7X's new album.
I'm sorry if this tab is inaccurate, all corrections are accepted (and will be
fixed this time, I got a little lazy with my others.) 

Tuning: Drop D (as most of their songs are.)
DADGBE

Intro
Guitar 1: (Synyster)
|-------------------------------------------|
|-15\10/17-15--11------15\10/17-15--18---17-|
|-x--x--x--x---x-------x--x--x--x---x----x--|
|-12\7/14--12--8-------12\7/-14-12--15---14-|
|-------------------------------------------|
|-------------------------------------------|


Guitar 2: (Zacky)
|------------------------------|
|------------------------------|
|---7-7--7-7-7-7----7-7--7-7---|
|---7-7--7-7-7-7----8-8--8-8---|
|---5-5--5-5-5-5----5-5--5-5---|
|---0-0--0-0-0-0--0-0-0--0-0-0-| (repeat twice)

Beginning Harmony Rhythm
|-----------------------|
|-----------------------|
|--5-5--5-5-5-5-5-5-5---|
|--5-5--5-5-5-5-5-5-5---|
|--3-3--3-3-3-3-3-3-3---|
|-----------------------|


Harmony
(Guitar 1)
|--------------------------|
|--------------------------|
|--10b12v--12b14r12b14b15--|
|--------------------------|
|--------------------------|
|--------------------------|

(Guitar 2)
|----------------------|
|----------------------|
|--7b9v--9b10r9b10b12--|
|----------------------|
|----------------------|
|----------------------|

*Intro riff comes back in*

Cont'd.
(Guitar 1)
|---------------------------|
|---------------------------|
|--10~--/10-12-14-14b15r14--|
|---------------------------|
|---------------------------|
|---------------------------|

(Guitar 2)
|------------------------|
|------------------------|
|--7~--/7-9-10-10b12r10--|
|------------------------|
|------------------------|
|------------------------|

(Guitar 1)
|-----------------------------------|
|-----------------------------------|
|--10b12--14-12-10-14-12-10-14b15~--|
|-----------------------------------|
|-----------------------------------|
|-----------------------------------|

(Guitar 2)
|---------------------------|
|---------------------------|
|--7b9--10-9-7-10-9-7-10b12-|
|---------------------------|
|---------------------------|
|---------------------------|

(Piano, Shadows comes in)


Verse rhythm
(Guitar 1)
|--------------------------------------------|
|--------------------------------------------|
|-(pick scrape)--9-9-9-9-9/10-10-10/12-12-12-|
|----------------x-x-x-x-x/x--x--x/x---x--x--|
|----------------7-7-7-7-7/8--8--8/10--10-10-|
|--------------------------------------------|

(Guitar 2)
|--------------------------------------|
|--------------------------------------|
|-----------------5-5-5-5-5---5-5-5-5--|
|---------------5-5-5-5-5-5-5-5-5-5-5--|
|-(pick scrape)-3-3-3-3-3-3-3-3-3-3-3--|
|--------------------------------------|

More Rhythm          (Syn Fill)
|------------------|-15-13---------------------------------------------|
|------------------|-------15-13---------------------------------------|
|------------------|-------------14------------------------------------|
|------------------|---------------15-17-15-17p15h18p15h17p15----------|
|------------------|------------------------------------------17h18h19-|
|-0000000000000000-|---------------------------------------------------|

(Piano, Vocals)

*Verse Riff*

Pre-Chorus
|------------------------------------------|
|------------------------------------------|
|--7--5-5-3-3-3-33-3-3-33-2-2--22--2-2--22-|
|--7--5-5-3-3-3-33-3-3-33-2-2--22--2-2--22-|
|--5--3-3-1-1-1-11-1-1-11-0-0--00--0-0--00-|
|------------------------------------------|

|-------------------------------------------------|
|-------------------------------------------------|
|-------------------------------------------------|
|--7-7-77--5-5-55--3-3-33--3-3-33--3-3-33--3-3-33-|
|--5-5-55--3-3-33--1-1-11--1-1-11--1-1-11--1-1-11-|
|-------------------------------------------------|

|-------------------|
|-------------------|
|-------------------|
|-------------------|
|--0000000000000000-|
|-------------------|

Chorus
|-------------------------------10-10-15-15-10-10-|
|-------------------------11-11-------------------|
|-------------------12-12-------------------------|
|-------------12-12-------------------------------|
|-10-10-13-13-------------------------------------|
|-------------------------------------------------|

(cont'd.)
|-14-14-10-10-----------------------------------|
|-------------10-10-----------------------------|
|-------------------11-11-----------------------|
|-------------------------12-12-----------------|
|-------------------------------13-13-12-12-9-9-| x2
|-----------------------------------------------|

|-------------------------11-11-15-15-11-11-|
|-------------------11-11-------------------|
|-------------12-12-------------------------|
|-------13-13-------------------------------|
|-13-13-------------------------------------|
|-------------------------------------------|
[ Tab from: http://www.guitaretab.com/a/avenged-sevenfold/99421.html ]
|-13-13-10-10-------------------------------------|
|-------------11-11-------------------------------|
|-------------------10-10-------------------------|
|-------------------------12-12-------------------|
|-------------------------------13-13-------------|
|-------------------------------------15-15-12-12-|
(I'm not sure about this bit below..)
|----------------------------------------------------|
|-------------------14-14-14-14-------17-17-14-14-15-|
|-------------14-14-------------14-14----------------|
|-11-11-14-14----------------------------------------|
|----------------------------------------------------|
|----------------------------------------------------|

End of chorus harmony
(Guitar 1)
|-------------------------------------------------------------------|
|-------------------------------------------------------------------|
|-12-12-12-12-12-12-14-14-14-14-14-14-15-15-15-15-14-14-14-14-14-14-|
|-------------------------------------------------------------------|
|-------------------------------------------------------------------|
|-------------------------------------------------------------------|

(Guitar 1 cont'd)
|------------------------------|
|------------------------------|
|-15-15-15-15-17-17-17-17-15~--|
|------------------------------|
|------------------------------|
|------------------------------|

(Guitar 2)
|----------------------------------------------------------------|
|-11-11-11-11-11-11-13-13-13-13-13-13-15-15-15-15-13-13-13-13-13-|
|----------------------------------------------------------------|
|----------------------------------------------------------------|
|----------------------------------------------------------------|
|----------------------------------------------------------------|

|--------------------------------------|
|-13-15-15-15-15-15-15-16-16-16-16-15~-|
|--------------------------------------|
|--------------------------------------|
|--------------------------------------|
|--------------------------------------|


*Back to Intro riff and verse*
*Chorus*

"Some live so wrong.." Lick (Swept)
|--17p13----------------------------17-18p15-------------------|
|--------15----------------------15----------15----------------|
|-----------14----------------14----------------15-------------|
|--------------15p12----12h15----------------------17----------|
|--------------------12-------------------------------17-------|
|--------------------------------------------------------20(?)-|

|-------------18p15------------------------------17p13----------------|
|----------15-------15-----------------------15--------15-------------|
|-------15-------------15-----------------15-------------14-----------|
|----17-------------------17-----------15-------------------15--------|
|-17-------------------------17-----17-------------------------16-17~-|
|-------------------------------20------------------------------------| x2

Choir Riff
|----------------------------------------------------------|
|----------------------------------------------------------|
|--3--3-3-3--3-3-3--3-3-3--3-3----7-7-7--7-7-7--7-7-7--7-7-|
|--3--3-3-3--3-3-3--3-3-3--3-3-0--7-7-7--7-7-7--7-7-7--7-7-|
|--1--1-1-1--1-1-1--1-1-1--1-1-0--5-5-5--5-5-5--5-5-5--5-5-|
|------------------------------0--0-0-0--0-0-0--0-0-0--0-0-|

|---------------------------------------------------------|
|---------------------------------------------------------|
|----------2--3-------------------------------------------|
|-0--2--3--2--3--3-3-3--3-3-3--3-3-3--3-3-2--2-2-2--2-2-2-|
|-0--2--3--0--1--1-1-1--1-1-1--1-1-1--1-1-0--0-0-0--0-0-0-|
|-0--2--3-------------------------------------------------|

|---------------|
|---------------|
|---------------|
|-2-------------|
|-0--5--3--2--0-|
|----5--3--2--0-|

*Back to Sweep Riff*

Clean Riff
|--13--13-------13-------12-------12-------12-13-|
|--15-----14-------14-------14-------14----------|
|--14--------15-------15-------15-------15-------|
|--0---------------------------------------------|
|------------------------------------------------|
|------------------------------------------------|


If anyone figures out the final harmony, please post it in a comment, and I will
add it to the tab.





LYRICS:
Somewhere life is good, and things go as they should 
it's hard to find, but thatís alright yeah 
Searching for the way, push harder everyday 
It's deep inside, that shining light yeah 
But I'm scarred, by barriers placed in my path 
I'm scathed 

This ride that takes me through life 
Leads me into darkness but emerges into light 
No one can ever slow me down 
I'll stay unbound 
 
Sometimes when we're young, and always on the run 
It gets so dark and I know that place yeah 
So don't be too concerned, you've got a lot to learn 
Well so do I and we've got plenty of time yeah 
Don't fall off the track yet with so many races to go 
Hold on 

This ride that takes me through life 
Leads me into darkness but emerges into light 
No one can ever slow me down 
I'll stay unbound 

Some live so wrong, with what we do is each his own 
But living in fear, endless shame for countless years 
I never lived in fear I knew I'd die another day 
I never viewed my life as something... slipping away  

Some live so wrong, with what we do is each his own 
But living in fear, endless shame for countless years 
I never lived in fear I knew I'd die another day 
I never viewed my life as something... slipping away 

There's nothing here to take for granted 
with each breath that we take 
the hands of time strip youth from our bodies, 
we fade, 
memories remain, 
as time goes on 

There's nothing here to take for granted 
with each breath that we take 
the hands of time strip youth from our bodies, 
we fade, 
memories remain, 
as time goes on
Related for Unbound Wild Ride tab