Song name
# A B C D E F G H I J K L M N O P Q R S T U V W X Y Z

Avenged Sevenfold - Beast And The Harlot tab

----------------------------------------------------------------------------
                        -Beast and the Harlot Solo-
----------------------------------------------------------------------------


   The other 2 solo tabs on here are good but too complicated and a little off so here's 
version. It should be 99% correct lol.
Good luck and thanks for all comments/corrections and ratings!

Band:Avenged Sevenfold
Album:City of Evil
Song:Beast and the Harlot


All of this tab is Synyster Gates part (1st guitar)


Key
b - Bend
h - Hammer-on
p - Pull-off
/ - Slide up neck(finger)
\ - Slide down neck(finger
* - Pinch Harmonic
~ - Let Ring


-Tuning-
Drop D
E-1st string
B-2nd string
G-3rd string
D-4th string
A-5th string
D-6th string

Start...
E|-10-------------13--------------16-----------------|
B|-13b------------16b-------------19b----------------|
G|---------------------------------------------------|
D|---------------------------------------------------|
A|---------------------------------------------------|
D|---------------------------------------------------|


E|-/13p10-----10-----------------------------------------------------------|
B|--------h13----h13~----10---11---12---13----13-12-11-10---14-13-12-11----|
G|-----------------------12b--13b--14b--15b--------------------------------|
D|-------------------------------------------------------------------------|
A|-------------------------------------------------------------------------|
D|-------------------------------------------------------------------------|


E|----------------12-13-15-17b~------17p13-----13--------------------------|
B|-15-14-13-14-15--------------------------h17----h17p13-h17p13-h17p13-----|
G|-------------------------------------------------------------------------|
D|-------------------------------------------------------------------------|
A|-------------------------------------------------------------------------|
D|-------------------------------------------------------------------------|


E|-20p17-------------------------------------------------------------------|
B|-------20p17\------------------------------------------------------------|
G|-----------------7p5-------------5-6-7~--5-7/9~--7-9/10~-----------------|
D|---------------------------5-6-7-----------------------------------------|
A|---------------------5-7-8------(Pick 9 and 10 When you slide to them)---|
D|-------------------------------------------------------------------------|


E|----------------------------12-13~---/13----/15---/12--------------------|
B|------10-11-13-12-11-12--13---------------------------12b--13b-13b--10*--|
G|-9h10--------------------------------------------------------------------|
D|-------------------------------------------------------------------------|
A|-------------------------------------------------------------------------|
D|-------------------------------------------------------------------------|

****************************************************************************
                               [Shredding]

E|-------------------------------------------------------------------------|
B|-------------------------------------------------------------------------|
G|-------------5-7-8-7-5---------------------------------------------------|
D|-------5-7-8-----------8-7-6-5-------------------------------------------|
A|-5-7-8-------------------------8-----------------------------------------|
D|-------------------------------------------------------------------------|


E|-------------------------------------------------------------------------|
B|-------------------------------------------------------------------------|
G|---------------7-8---10-8-7---10-8-7-------------------------------------|
D|--------7-8-10-----------------------10-8-7------------------------------|
A|-7-8-10-------------------------------------8----------------------------|
D|-------------------------------------------------------------------------|


E|-------------------------------------------------------------10-12-13-12-|
B|---------------------------------------10-11-13-11-10-11-13--------------|
G|-------------------9-10-12-10-9-10-12------------------------------------|
D|----------8-10-12--------------------------------------------------------|
A|-8-10-12-----------------------------------------------------------------|
D|-------------------------------------------------------------------------|

E|-10-----------------------------------------|
B|-----13-11-10-11-11-10----------------------|
G|------------------------12-10~--------------|
D|--------------------------------------------|
A|--------------------------------------------|
D|--------------------------------------------|

****************************************************************************
                         [Quick alternate picking]

E|-20-19-18-17-------------------------------------------------------------|
B|--------------20-19-18-17------------------------------------------------|
G|--------------------------20-19-18-17------------------------------------|
D|--------------------------------------20-19-18-17------------------------|
A|-------------------------------------------------------------------------|
D|-------------------------------------------------------------------------|

E|-------------------------------------------------------------------------|
B|-20-19-18-17-------------------------------------------------------------|
G|-------------20-19-18-17-------------------------------------------------|
D|-------------------------20-19-18-17-------------------------------------|
A|-------------------------------------20-19-18-17-------------------------|
D|-------------------------------------------------------------------------|


E|-18-17-16-15-------------------------------------------------------------|
B|-------------18-17-16-15-------------------------------------------------|
G|-------------------------18-17-16-15-------------------------------------|
D|-------------------------------------18-17-16-15-------------------------|
A|-------------------------------------------------------------------------|
D|-------------------------------------------------------------------------|

E|-------------------------------------------------------------------------|
B|-18-17-16-15-------------------------------------------------------------|
G|-------------18-17-16-15-------------------------------------------------|
D|-------------------------18-17-16-15-------------------------------------|
A|-------------------------------------18-17-16-15-------------------------|
D|-------------------------------------------------------------------------|

End on...
E|----------|    |----------|
B|----------|    |-/17b-----|
G|-/14b-----| Or |----------|
D|----------|    |----------|
A|----------|    |----------|
D|----------|    |----------|
Tap to rate this tab
 
# A B C D E F G H I J K L M N O P Q R S T U V W X Y Z