Song name
# A B C D E F G H I J K L M N O P Q R S T U V W X Y Z

Avenged Sevenfold - Nightmare tab

Nightmare
Avenged Sevenfold
Nightmare


Transcribed by Seth "Shadows" Sanders {livetolieanotherday@hotmail.com}

Bb
x 1 x 3 x x	
B
x 2 x 4 x x	
C
x 3 x 5 x x	
C#
x 4 x 6 x x
Bb5
x 1 3 3 x x	
C5
x 3 5 5 x x

Gtr I (D A D G B E) - 'Rhythm Guitar I'
Gtr II (D A D G B E) - 'Rhythm Guitar II'
Gtr III (D A D G B E) - 'Lead Guitar I'
Gtr IV (D A D G B E) - 'Lead Guitar II'
Gtr V (D A D G B E) - 'Lead Guitar III'
Gtr VI (D A D G B E) - 'Piano'

  Intro
   Q=128
   Amaj7sus4/D
  4/4
   Gtr VI    Intro Piano
||---------------|-------------------|---------|
||------10-------|-------------------|---------|
||-----------13--|-(13)-12-----------|---------|
||-12------------|-----------15------|---------|
||---------------|---------------17--|-(17)----|
||---------------|-------------------|---------|


  Amaj7sus4/D
|---------------|-----------------|---------|
|------10-------|-----------------|---------|
|-----------13--|-(13)-12---------|---------|
|-12------------|-----------15----|-(15)----|
|---------------|-----------------|---------|
|---------------|-----------------|---------|


  Amaj7sus4/D
|---------------|-------------------|---------|
|------10-------|-------------------|---------|
|-----------13--|-(13)-12-----------|---------|
|-12------------|-----------15------|---------|
|---------------|---------------17--|-(17)----|
|---------------|-------------------|---------|


  Amaj7sus4/D
|---------------|-----------------|---------||
|------10-------|-----------------|---------||
|-----------13--|-(13)-12---------|---------||
|-12------------|-----------15----|-(15)----||
|---------------|-----------------|---------||
|---------------|-----------------|---------||


 Pre-Intro
  Fmaj7sus4/Bb              E5/B
|---------------|-------------------|-----------------|
|-11------------|-----------12------|-----------------|
|------10-------|----------------10-|-(10)------------|
|-----------14--|-(14)-12-----------|-------14--------|
|-13------------|-----------14------|------------17---|
|---------------|-------------------|-----------------|


  Cadd11
|---------------|-------------------|-----------------||
|-13------------|-----------11---10-|-(10)-------10---||
|-----------10--|-(10)-12---12---10-|-(10)--12--------||
|------14-------|-------------------|-----------------||
|-15------------|-------------------|-----------------||
|---------------|-------------------|-----------------||


 Guitar Intro
  Gtrs I, II
    PM--------------|
|--------------------------------|
|--------------------------------|
|--------------------------------|
|--------------------------------|
|----------------------0---------|
|---0-0-0-0-0-0-0-0-0--0---------|
|
| Gtr III
|   ~~~~~~~~~~~~~~~~~~~~~     ~~~~
|--------------------------------|
|--------------------------------|
|---------------------14--14p13--|
|-/12----------------------------|
|--------------------------------|
|--------------------------------|
|
| Gtr IV
|   ~~~~~~~~~~~~~~~~~~~~~     ~~~~
|--------------------------------|
|--------------------------------|
|--------------------------------|
|----------------------7---7p=6--|
|--/5----------------------------|
|--------------------------------|


             PM------------------|
|-----------------------------------|-------------------------|
|-----------------------------------|-------------------------|
|-----------------------------------|-------------------------|
|-----------------------------------|-------------------------|
|-----------------------------------|-------------------------|
|------------0-0-0--0-0-0--0-0-0--0-|-------------------------|
|
|~~~~~~~
|-----------------------------------|-------------------------|
|-----------------------------------|-------------------------|
|-13p12--12p10----------------------|-------------------------|
|------------------12-----11-----12-|-(12)-----------8h10h12--|
|-----------------------------------|-------/8h10h12----------|
|-----------------------------------|-------------------------|
|
|~~~~~~~
|-----------------------------------|-------------------------|
|-----------------------------------|-------------------------|
|------------7----------------------|-------------------------|
|--6p=5---5---------8------7------8-|--(8)-----------5h=7h=8--|
|-----------------------------------|-------/5h=7h=8----------|
|-----------------------------------|-------------------------|


    PM--------------|     PM-------------------|   PM----|      PM----|
|-----------------------------------|------------------------------------|
|-----------------------------------|------------------------------------|
|-----------------------------------|------------------------------------|
|-----------------------------------|------------------------------------|
|----------------------0------------|------------------------------------|
|---0-0-0-0-0-0-0-0-0--0--0-0-0--0--|---0--0-0--0--0-0-0--0-----0-0-0--0-|
|
|   ~~~~~~~~~~~~~~~~~~~~~~~~~~~~~~~~~~~~~~~~~~~~~~
|-----------------------------------|------------------------------------|
|-----------------------------------|------------------------------------|
|---------------------14--------13--|-(13)-----12--------10--------------|
|-/12-------------------------------|-----------------------12-11-----12-|
|-----------------------------------|------------------------------------|
|-----------------------------------|------------------------------------|
|
|   ~~~~~~~~~~~~~~~~~~~~~~~~~~~~~~~~~~~~~~~~~~~~~~
|-----------------------------------|------------------------------------|
|-----------------------------------|------------------------------------|
|-----------------------------------|---------------------7--------------|
|----------------------7---------6--|--(6)------5------------8--7------8-|
|--/5-------------------------------|------------------------------------|
|-----------------------------------|------------------------------------|


       PM----|      PM----|     PM|
|-------------------------------------|
|-------------------------------------|
|-------------------------------------|
|-------------------------------------|
|-------------------------------3-3---|
|------0-0-0--0-----0-0-0-0-----3-3---|
|
|-------------------------------------|
|-------------------------------------|
|-------------------------------------|
|-(12)--------------------8h10h12-----|
|------------/8h10h12-----------------|
|-------------------------------------|
|
|-------------------------------------|
|-------------------------------------|
|-------------------------7h=9h10-----|
|--(8)-------/7h=8h10-----------------|
|-------------------------------------|
|-------------------------------------|


||-----------------|-----------------------|
||o----------------|-----------------------|
||-----------------|-----------------------|
||----0------------|--(0)------------------|
||o---0------------|--(0)------------------|
||----0------------|--(0)------------------|
|
|     ~~~~~~~~~~~~~~~~~~~~~~~
||-----------------|-----------------------|
||o----------------|-----------------------|
||--------14---13--|-(13)-12---10----------|
||--/12------------|--------------12-11-12-|
||o----------------|-----------------------|
||-----------------|-----------------------|
|
|     ~~~~~~~~~~~~~~~~~~~~~~~
||-----------------|-----------------------|
||o----------------|-----------------------|
||-----------------|------------7----------|
||---------7----6--|--(6)--5-------8--7--8-|
||o--/5------------|-----------------------|
||-----------------|-----------------------|


         PM----------------------------------|
|------------------------------------------------||
|-----------------------------------------------o||
|------------------------------------------------||
|--(0)-------------------------------------------||
|--(0)------------------------------------------o||
|--(0)---0-0-0--0-0-0--0-0-0-0-0-0--0-0-0--0-0---||
|
|------------------------------------------------||
|-----------------------------------------------o||
|------------------------------------------------||
|-(12)-----------------------8h====10h====12-----||
|-------/8h====10h====12------------------------o||
|------------------------------------------------||
|
|------------------------------------------------||
|-----------------------------------------------o||
|----------------------------7h=====9h====10-----||
|--(8)--/7h=====8h====10-------------------------||
|-----------------------------------------------o||
|------------------------------------------------||


  Bb           B                   C                 C#
  Gtr II
    |           |      |            |        |        |          |
    /           /      /            /        /        /          /

  Gtr I
|------------------|---------------------|-------------------|---------||
|------------------|---------------------|-------------------|---------||
|---3-----------4--|--(4)-----------5----|--(5)-------9------|--(9)----||
|---x-----------x--|----------------x----|------------x------|---------||
|---1-----------2--|--(2)-----------3----|--(3)-------7------|--(7)----||
|------------------|---------------------|-------------------|---------||
|
|   ~~~~~~~     ~~         ~~       ~~~~~~~~~~~~      ~~~~~~~~~~~~~~
|------------------|---------------------|-------------------|---------||
|------------------|---------------------|-------------------|---------||
|------------------|---------------------|-------------------|---------||
|-/12---12--10--9--|--(9)S15--(15)S14----|-(14)-(14)S17------|-(17)----||
|------------------|---------------------|-------------------|---------||
|------------------|---------------------|-------------------|---------||
|
|   ~~~~~~~     ~~         ~~       ~~~~~~~~~~~~      ~~~~~~~~~~~~~~
|------------------|---------------------|-------------------|---------||
|------------------|---------------------|-------------------|---------||
|------------------|---------------------|-------------------|---------||
|-/15---15--14-12--|-(12)S19--(19)S17----|-(17)-(17)S21------|-(21)----||
|------------------|---------------------|-------------------|---------||
|------------------|---------------------|-------------------|---------||


 Pre-Verse
  Gtrs I, II
   PM---------------------------------------------
|------------------------------------------------|
|------------------------------------------------|
|------------------------------------------------|
|------------------------------------------------|
|------------------------------------------------|
|--0--0-0-0--0--0--0------0--0--0-0-0--0---0-0-0-|
|
| Gtr IV
|  <
|                  \0.25/    /         \3_________
|  ~~~~~~~~~~~~~~~~~~~~~~~
|------------------------------------------------|
|------------------------------------------------|
|-<3>-------(3)---(3)-------(3)-------(3)--------|
|------------------------------------------------|
|------------------------------------------------|
|------------------------------------------------|
|
| Gtr III
|  <
|                  \0.25/    /         \3_________
|  ~~~~~~~~~~~~~~~~~~~~~~~
|------------------------------------------------|
|------------------------------------------------|
|-<7>-------(7)---(7)-------(7)-------(7)--------|
|------------------------------------------------|
|------------------------------------------------|
|------------------------------------------------|


 -----------------------------------------|
|-------------------------------------------|
|-------------------------------------------|
|-------------------------------------------|
|-------------------------------------------|
|-------------------------------------------|
|--0--0-0-0-0-0-0-0-0-0--0--0-0-0--0--0-0-0-|
|
|-------------------------------------------|
|-------------------------------------------|
|-(3)-------------------(3)-------(3)-------|
|-------------------------------------------|
|-------------------------------------------|
|-------------------------------------------|
|
|-------------------------------------------|
|-------------------------------------------|
|-(7)-------------------(7)-------(7)-------|
|-------------------------------------------|
|-------------------------------------------|
|-------------------------------------------|


   PM----------------------------------------
|-------------------------------------------|
|-------------------------------------------|
|-------------------------------------------|
|-------------------------------------------|
|-------------------------------------------|
|--0--0-0-0-0-0-0-0-0-0-0-0--0--0------0--0-|
|
|                            /    \2_________
|  ~~~
|-------------------------------------------|
|---------------------------------3---<3>---|
|-(3)-----------------------(3)-------------|
|-------------------------------------------|
|-------------------------------------------|
|-------------------------------------------|
|
|                            /    \2_________
|  ~~~
|-------------------------------------------|
|---------------------------------5---<5>---|
|-(7)-----------------------(7)-------------|
|-------------------------------------------|
|-------------------------------------------|
|-------------------------------------------|


 ---------------------------------------------|
|-----------------------------------------------------||
|-----------------------------------------------------||
|-----------------------------------------------------||
|-----------------------------------------------------||
|-----------------------------------------------------||
|--0--0-0-0-0-0--0--0-0-0--0----0-0-0-0--0--0-0-/5p0--||
|
|  /                       \1.5
|-----------------------------------------------------||
|-(3)-----------(3)-------(3)-----------(3)-----------||
|-----------------------------------------------------||
|-----------------------------------------------------||
|-----------------------------------------------------||
|-----------------------------------------------------||
|
|  /                       \1.5
|-----------------------------------------------------||
|-(5)-----------(5)-------(5)-----------(5)-----------||
|-----------------------------------------------------||
|-----------------------------------------------------||
|-----------------------------------------------------||
|-----------------------------------------------------||


   Verse I
    Gtrs I, II
             PM-----------|
||--------------------------|
||o-------------------------|
||--------------------------|
||--------------------------|
||o-3b4--(3)-0--------------|
||--3b4--(3)-0--0-0-0-0-0-0-|


           PM-----------|            PM-----------|
|-------------------------|--------------------------|
|-------------------------|--------------------------|
|-------------------------|--------------------------|
|-------------------------|--------------------------|
|-3b4--(3)-0--------------|-3b4--(3)-0---------------|
|-3b4--(3)-0--0-0-0-0-0-0-|-3b4--(3)-0--0-0-0-0-0-0--|


  1.                                  2.
|----------------------------------||---------------------------------||
|---------------------------------o||---------------------------------||
|----------------------------------||---------------------------------||
|----------------------------------||---------------------------------||
|---------------------------------o||---------------------------------||
|-5p3h6p3-5p3p0h3-5p3h6p3h5p3p0h3--||-0-3h6p3-2h3h5p2-3h5h6p5-6p0-5h6-||


   Pre-Chorus
    Gtrs I, II
         PM--|     PM      PM    PM
||-------------------|-----------------|
||o------------------|-----------------|
||-------------------|-----------------|
||-------------------|-----------------|
||o-3p0--------3p0---|-3p0---3p0---3p0-|
||--3p0--0-0-0-3p0-0-|-3p0-0-3p0-0-3p0-|
|
|   Gtr V
|        ~~~~~~~~~~        PM    PM
||-------------------|-----------------|
||o------------------|-----------------|
||-------------------|-----------------|
||------/7---6---5---|-----------------|
||o-3p0--------------|-8p5---3p0---6p0-|
||-------------------|-----0-----0-----|


                     1.
       PM    PM
|------------------|----------------------------------||
|------------------|---------------------------------o||
|------------------|----------------------------------||
|------------------|----------------------------------||
|-3p0----3p0---3p0-|---------------------------------o||
|-3p0--0-3p0-0-3p0-|-5p3h6p3-5p3p0h3-5p3h6p3h5p3p0h3--||
|
|      ~~~~~~~~~~~
|------------------|----------------------------------||
|------------------|---------------------------------o||
|------------------|----------------------------------||
|-----/7---6---5---|----------------------------------||
|-3p0--------------|-8---x---x---x---x---8---x---x---o||
|------------------|----------------------------------||


  2.
|---------------------------------|-----------------------------------||
|---------------------------------|-----------------------------------||
|---------------------------------|-----------------------------------||
|---------------------------------|-----------------------------------||
|---------------------------------|-----------------------------------||
|-0-3h6p3-0-5p3h5-0-3h5p3-5p0-3p0-|-5p3h6p3-5p3p0h3-5p3h6p3h5p3p0h3---||
|
|---------------------------------|-----------------------------------||
|---------------------------------|-----------------------------------||
|---------------------------------|-----------------------------------||
|---------------------------------|-----------------------------------||
|-8---x---x---x---x---8---x---x---|-8---x---x---8---x---8---x---8-----||
|---------------------------------|-----------------------------------||


 Chorus
  Gtr I
|-----------------|-----------------|-----------------|-------------------|
|-----------------|-----------------|-----------------|-------------------|
|-----------------|-5----(5)-5-(5)--|-----------------|--3-----(3)-3-(3)--|
|-0----(0)-0-(0)--|-5----(5)-5-(5)--|-3----(3)-3-(3)--|--3-----(3)-3-(3)--|
|-0----(0)-0-(0)--|-3----(3)-3-(3)--|-3----(3)-3-(3)--|--1-----(1)-1-(1)--|
|-0----(0)-0-(0)--|-----------------|-3----(3)-3-(3)--|-------------------|
|
| Gtr II
|-----------------|-----------------|-----------------|-------------------|
|-----------------|-----------------|-----------------|-------------------|
|-----------------|-5----(5)-5-(5)--|-----------------|-10---9-----7------|
|-0----(0)-0-(0)--|-5----(5)-5-(5)--|-3----(3)-3-(3)--|--x---x-----x------|
|-0----(0)-0-(0)--|-3----(3)-3-(3)--|-3----(3)-3-(3)--|--8---7-----5------|
|-0----(0)-0-(0)--|-----------------|-3----(3)-3-(3)--|-------------------|


  Gtrs I, II
|-----------------|-----------------|-----------------|
|-----------------|-----------------|-----------------|
|-----------------|-5----(5)-5-(5)--|-----------------|
|-0----(0)-0-(0)--|-5----(5)-5-(5)--|-3----(3)-3-(3)--|
|-0----(0)-0-(0)--|-3----(3)-3-(3)--|-3----(3)-3-(3)--|
|-0----(0)-0-(0)--|-----------------|-3----(3)-3-(3)--|


                        PM|   PM|
|-----------------|---------------|----------||
|-----------------|---------------|----------||
|-3----(3)-3-(3)--|-2-------2-----|-2--------||
|-3----(3)-3-(3)--|-2---2-2-2-2-2-|-2--------||
|-1----(1)-1-(1)--|-0---0-0-0-0-0-|-0--------||
|-----------------|---------------|----------||


 Pre-Verse
  Gtrs I, II
   PM---------------------------------------------
|------------------------------------------------|
|------------------------------------------------|
|------------------------------------------------|
|------------------------------------------------|
|------------------------------------------------|
|--0--0-0-0--0--0--0------0--0--0-0-0--0---0-0-0-|
|
| Gtr IV
|  <
|                  \0.25/    /         \3_________
|  ~~~~~~~~~~~~~~~~~~~~~~~
|------------------------------------------------|
|------------------------------------------------|
|-<3>-------(3)---(3)-------(3)-------(3)--------|
|------------------------------------------------|
|------------------------------------------------|
|------------------------------------------------|
|
| Gtr III
|  <
|            \6    \0.25/
|  ~~~~~~~~~~~~~~~~~~~~~~~
|------------------------------------------------|
|------------------------------------------------|
|-<7>-------(7)---(7)-------(7)-------(7)--------|
|------------------------------------------------|
|------------------------------------------------|
|------------------------------------------------|


 ---------------------------------------------|
|-----------------------------------------------|
|-----------------------------------------------|
|-----------------------------------------------|
|-----------------------------------------------|
|-----------------------------------------------|
|--0--0-0-0-0-0-0-0-0-0--0--0-0-0--0------0-0-0-|
|
|-----------------------------------------------|
|-----------------------------------------------|
|-(3)-------------------(3)-------(3)-----------|
|-----------------------------------------------|
|-----------------------------------------------|
|-----------------------------------------------|
|
|                                  \3.75/
|-----------------------------------------------|
|-----------------------------------------------|
|-(7)-------------------(7)-------(7)-----------|
|-----------------------------------------------|
|-----------------------------------------------|
|-----------------------------------------------|


   PM------------------------------------------
|---------------------------------------------|
|---------------------------------------------|
|---------------------------------------------|
|---------------------------------------------|
|---------------------------------------------|
|--0----0-0-0-0-0-0-0-0-0-0-0--0--0------0--0-|
|
|                              /    \2_________
|  ~~~~~
|---------------------------------------------|
|-----------------------------------3---<3>---|
|-(3)-------------------------(3)-------------|
|---------------------------------------------|
|---------------------------------------------|
|---------------------------------------------|
|
|  \1.5
|---------------------------------------------|
|-<5>-----------------------------------------|
|-<5>-----------------------------------------|
|---------------------------------------------|
|---------------------------------------------|
|---------------------------------------------|


 ---------------------------------------------|
|-----------------------------------------------------||
|-----------------------------------------------------||
|-----------------------------------------------------||
|-----------------------------------------------------||
|-----------------------------------------------------||
|--0--0-0-0-0-0--0--0-0-0--0----0-0-0-0--0--0-0-/5p0--||
|
|  /                       \1.5
|-----------------------------------------------------||
|-(3)-----------(3)-------(3)-----------(3)-----------||
|-----------------------------------------------------||
|-----------------------------------------------------||
|-----------------------------------------------------||
|-----------------------------------------------------||
|
|-----------------------------------------------------||
|-(5)-------------------------------------------------||
|-(5)-------------------------------------------------||
|-----------------------------------------------------||
|-----------------------------------------------------||
|-----------------------------------------------------||


   Verse II
    Gtrs I, II
             PM-----------|
||--------------------------|
||o-------------------------|
||--------------------------|
||--------------------------|
||o-3b4--(3)-0--------------|
||--3b4--(3)-0--0-0-0-0-0-0-|


           PM-----------|            PM-----------|
|-------------------------|--------------------------|
|-------------------------|--------------------------|
|-------------------------|--------------------------|
|-------------------------|--------------------------|
|-3b4--(3)-0--------------|-3b4--(3)-0---------------|
|-3b4--(3)-0--0-0-0-0-0-0-|-3b4--(3)-0--0-0-0-0-0-0--|


  1.                                  2.
|----------------------------------||---------------------------------||
|---------------------------------o||---------------------------------||
|----------------------------------||---------------------------------||
|----------------------------------||---------------------------------||
|---------------------------------o||---------------------------------||
|-5p3h6p3-5p3p0h3-5p3h6p3h5p3p0h3--||-0-3h6p3-2h3h5p2-3h5h6p5-6p0-5h6-||


   Pre-Chorus
    Gtrs I, II
         PM--|     PM      PM    PM
||-------------------|-----------------|
||o------------------|-----------------|
||-------------------|-----------------|
||-------------------|-----------------|
||o-3p0--------3p0---|-3p0---3p0---3p0-|
||--3p0--0-0-0-3p0-0-|-3p0-0-3p0-0-3p0-|
|
|   Gtr V
|        ~~~~~~~~~~        PM    PM
||-------------------|-----------------|
||o------------------|-----------------|
||-------------------|-----------------|
||------/7---6---5---|-----------------|
||o-3p0--------------|-8p5---3p0---6p0-|
||-------------------|-----0-----0-----|


                     1.
       PM    PM
|------------------|----------------------------------||
|------------------|---------------------------------o||
|------------------|----------------------------------||
|------------------|----------------------------------||
|-3p0----3p0---3p0-|---------------------------------o||
|-3p0--0-3p0-0-3p0-|-5p3h6p3-5p3p0h3-5p3h6p3h5p3p0h3--||
|
|      ~~~~~~~~~~~
|------------------|----------------------------------||
|------------------|---------------------------------o||
|------------------|----------------------------------||
|-----/7---6---5---|----------------------------------||
|-3p0--------------|-8---x---x---x---x---8---x---x---o||
|------------------|----------------------------------||


  2.
|---------------------------------|-----------------------------------||
|---------------------------------|-----------------------------------||
|---------------------------------|-----------------------------------||
|---------------------------------|-----------------------------------||
|---------------------------------|-----------------------------------||
|-0-3h6p3-0-5p3h5-0-3h5p3-5p0-3p0-|-5p3h6p3-5p3p0h3-5p3h6p3h5p3p0h3---||
|
|---------------------------------|-----------------------------------||
|---------------------------------|-----------------------------------||
|---------------------------------|-----------------------------------||
|---------------------------------|-----------------------------------||
|-8---x---x---x---x---8---x---x---|-8---x---x---8---x---8---x---8-----||
|---------------------------------|-----------------------------------||


   Chorus
    Gtr I
||------------------|-----------------|-----------------|------------------|
||o-----------------|-----------------|-----------------|------------------|
||------------------|-5----(5)-5-(5)--|-----------------|--3-----(3)-3-(3)-|
||--0----(0)-0-(0)--|-5----(5)-5-(5)--|-3----(3)-3-(3)--|--3-----(3)-3-(3)-|
||o-0----(0)-0-(0)--|-3----(3)-3-(3)--|-3----(3)-3-(3)--|--1-----(1)-1-(1)-|
||--0----(0)-0-(0)--|-----------------|-3----(3)-3-(3)--|------------------|
|
|   Gtr II
||------------------|-----------------|-----------------|------------------|
||o-----------------|-----------------|-----------------|------------------|
||------------------|-5----(5)-5-(5)--|-----------------|-10---9-----7-----|
||--0----(0)-0-(0)--|-5----(5)-5-(5)--|-3----(3)-3-(3)--|--x---x-----x-----|
||o-0----(0)-0-(0)--|-3----(3)-3-(3)--|-3----(3)-3-(3)--|--8---7-----5-----|
||--0----(0)-0-(0)--|-----------------|-3----(3)-3-(3)--|------------------|


|-------------------|-------------------|------------------|
|-------------------|-------------------|------------------|
|-------------------|-5----(5)--5--(5)--|------------------|
|-0----(0)--0--(0)--|-5----(5)--5--(5)--|--3----(3)-3-(3)--|
|-0----(0)--0--(0)--|-3----(3)--3--(3)--|--3----(3)-3-(3)--|
|-0----(0)--0--(0)--|-------------------|--3----(3)-3-(3)--|
|
|-------------------|-------------------|------------------|
|-------------------|-------------------|------------------|
|-7----(7)-10-(10)--|-9----(9)-12-(12)--|-10---------------|
|-x---------x-------|-x---------x-------|--x---------------|
|-5----(5)--8--(8)--|-7----(7)-10-(10)--|--8---------------|
|-------------------|-------------------|------------------|


                          PM|   PM|
|------------------||---------------|--------------||
|-----------------o||---------------|--------------||
|-3----(3)-3-(3)---||-2-------2-----|-2------------||
|-3----(3)-3-(3)---||-2---2-2-2-2-2-|-2------------||
|-1----(1)-1-(1)--o||-0---0-0-0-0-0-|-0------------||
|------------------||---------------|--------------||
|
|                         PM|   PM|
|------------------||---------------|--------------||
|-----------------o||---------------|--------------||
|-7----(7)-3-(3)---||-2-------2-----|-2------------||
|-x--------x-------||-2---2-2-2-2-2-|-2------------||
|-5----(5)-1-(1)--o||-0---0-0-0-0-0-|-0------------||
|------------------||---------------|------/12\----||


 Break
  Gtr V
|---------------------|-------------------------||
|---------------------|-------------------------||
|---------------------|-------------------------||
|---------------------|-15S17S18S19S20S21S22S24-||
|---------------------|-------------------------||
|-0S3S5S8S12S15S17S22-|-------------------------||


 Guitar Duet
  Gtrs I, II
|--------------------|-----------------------|--------------------------------|
|--------------------|-----------------------|--------------------------------|
|--------------------|-----------------------|--------------------------------|
|-0------------------|-(0)-------------------|--(0)---------------------------|
|-0------------------|-(0)-------------------|--(0)---------------------------|
|-0------------------|-(0)-------------------|--(0)---------------------------|
|
| Gtr III
|          ~~     ~~       ~~        ~~~~~~~~~~~~~~~
|----x-16s17--17p16--|-16p15--15p13----------|--------------------------------|
|--------------------|--------------15-(15)--|-(15)-(15)\-----------------14--|
|--------------------|-----------------------|-------------------12----14-----|
|--------------------|-----------------------|------------/11h14----14--------|
|--------------------|-----------------------|--------------------------------|
|--------------------|-----------------------|--------------------------------|
|
| Gtr IV
|          ~~     ~~       ~~        ~~~~~~~~~~~~~~~
|----x-12s13--13p12--|-12p11--11p10----------|--------------------------------|
|--------------------|--------------11-(11)--|-(11)-(11)\-----------------17--|
|--------------------|-----------------------|-------------------15----18-----|
|--------------------|-----------------------|------------/14h17----17--------|
|--------------------|-----------------------|--------------------------------|
|--------------------|-----------------------|--------------------------------|


|--------------------|-----------------------|--------------------------------|
|--------------------|-----------------------|--------------------------------|
|--------------------|-----------------------|--------------------------------|
|-0------------------|-(0)-------------------|--(0)---------------------------|
|-0------------------|-(0)-------------------|--(0)---------------------------|
|-0------------------|-(0)-------------------|--(0)---------------------------|
|
|          ~~     ~~       ~~        ~~~~~~~~~~~~~~~
|----x-16s17--17p16--|-16p15--15p13----------|--------------------------------|
|--------------------|--------------15-(15)--|-(15)-(15)\---------------------|
|--------------------|-----------------------|-------------------14h15h16h17--|
|--------------------|-----------------------|------------/15h17--------------|
|--------------------|-----------------------|--------------------------------|
|--------------------|-----------------------|--------------------------------|
|
|          ~~     ~~       ~~        ~~~~~~~~~~~~~~~
|----x-12s13--13p12--|-12p11--11p10----------|--------------------------------|
|--------------------|--------------11-(11)--|-(11)-(11)\---------------------|
|--------------------|-----------------------|-------------------10h11h12h13--|
|--------------------|-----------------------|------------/12h14--------------|
|--------------------|-----------------------|--------------------------------|
|--------------------|-----------------------|--------------------------------|


|--------------------|-------------------|----------------||
|--------------------|-------------------|----------------||
|---3-------------4--|--(4)---------5----|-(5)-------6----||
|---x-------------x--|--------------5----|-(5)-------7----||
|---1-------------2--|--(2)---------3----|-(3)-------4----||
|--------------------|-------------------|----------------||
|
|   ~~~           ~~           ~~~~~~~               ~~
|--------------------|-------------------|----------15----||
|-/15---15p14-13p12--|-(12)\-/18---17----|-15h16h17-------||
|--------------------|-------------------|----------------||
|--------------------|-------------------|----------------||
|--------------------|-------------------|----------------||
|--------------------|-------------------|----------------||
|
|   ~~~           ~~           ~~~~~~~               ~~
|--------------------|-------------------|----------12----||
|-/11---11p10--8p=7--|--(7)\-/15---13----|-12h13h14-------||
|--------------------|-------------------|----------------||
|--------------------|-------------------|----------------||
|--------------------|-------------------|----------------||
|--------------------|-------------------|----------------||


 Guitar Solo
  Gtr V
    ~~~
|-/17---------(17)\----------------------14h15h|
|----------------------------14h15h16h17-------|
|-------------------14h15s16-------------------|
|----------------------------------------------|
|----------------------------------------------|
|----------------------------------------------|
|
| Gtrs I, II
|         PM|
|----------------------------------------------|
|----------------------------------------------|
|----------------------------------------------|
|----------------------------------------------|
|---0-x-x-------3p======0-----x--------0-------|
|---0-x-x-0-0---3p======0-----x--------0-------|


   ~~
|-16---------(16)\----------------------12h14--|
|---------------------------13h14h15h16--------|
|------------------13h14s15--------------------|
|----------------------------------------------|
|----------------------------------------------|
|----------------------------------------------|
|
|    PM|               PM|
|----------------------------------------------|
|----------------------------------------------|
|----------------------------------------------|
|----------------------------------------------|
|--x-----3p0---x------------/3-----------------|
|--x-0-0-3p0---x-------0--0-/3-----------------|


   ~~
|-15---------(15)\-x-15b17==(15)r==(15)s|
|---------------------------------------|
|---------------------------------------|
|---------------------------------------|
|---------------------------------------|
|---------------------------------------|
|
|        PM|
|---------------------------------------|
|---------------------------------------|
|---------------------------------------|
|---------------------------------------|
|--0-x-x-------3p=============0--x---0--|
|--0-x-x-0-0---3p=============0--x---0--|


   ~~
|-13-------/17p15p13----------------13h17p13-------------|
|--------------------15----------15----------15----------|
|-----------------------14----14----------------14-------|
|--------------------------15----------------------15s8--|
|--------------------------------------------------------|
|--------------------------------------------------------|
|
|    PM|                    PM|
|--------------------------------------------------------|
|--------------------------------------------------------|
|--------------------------------------------------------|
|--------------------------------------------------------|
|--x-----3p==0--------x----------------/3----------------|
|--x-0-0-3p==0--------x-----0--0-------/3----------------|


|---------------------------|-\10---13---/17-18-----17--|
|---------------------------|---x----x-----x--x------x--|
|-\7---10---/14---15---14---|--\7---10---/14-15-----14--|
|--x----x-----x----x----x---|---------------------------|
|-\5----8---/12---13---12---|---------------------------|
|---------------------------|---------------------------|
|
| Gtr III
|---------------------------|---------------------------|
|---------------------------|---------------------------|
|---------------------------|---------------------------|
|---------------------------|---------------------------|
|---------------------------|---------------------------|
|---------------------------|---------------------------|
|
| Gtrs I, II
|             PM|                 PM|           PM|
|---------------------------|---------------------------|
|---------------------------|---------------------------|
|---------------------------|---------------------------|
|---------------------------|---------------------------|
|--0-x----x--------3p0--x-0-|---x------3p==0--x-----/3--|
|--0-x----x---0-0--3p0--x-0-|---x-0--0-3p==0--x-0-0-/3--|


   ~~            ~~      ~~                          ~~~~
|-15-(15)s18s15---------------|-------------------------------||
|---------------15-(15)S20----|-\17-18----20-20b22-(20)-------||
|-----------------------------|-------------------------------||
|-----------------------------|-------------------------------||
|-----------------------------|-------------------------------||
|-----------------------------|-------------------------------||
|
|                ~~      ~~                          ~~~~
|---------------13-(13)S15----|-------------------------------||
|-----------------------------|-\13-15----17-17b18-(17)-------||
|-----------------------------|-------------------------------||
|-----------------------------|-------------------------------||
|-----------------------------|-------------------------------||
|-----------------------------|-------------------------------||
|
|-----------------------------|-------------------------------||
|-----------------------------|-------------------------------||
|-----------------------------|-------------------------------||
|--8-------8--8--9-------9--9-|--10----10-10-11---------11-11-||
|--8-------8--8-10------10-10-|--10----10-10-12---------12-12-||
|--8-------8--8--9-------9--9-|--10----10-10-11---------11-11-||


 Guitar Duet
  Gtr III
|-/13-13-13-13-13-13-13-13-13-13-13-13-13-13-13-13-13-13-13-13-13-13-13-13-17-17-17-17-17-17-17-17-|
|--------------------------------------------------------------------------------------------------|
|--------------------------------------------------------------------------------------------------|
|--------------------------------------------------------------------------------------------------|
|--------------------------------------------------------------------------------------------------|
|--------------------------------------------------------------------------------------------------|
|
| Gtr IV
|-/10-10-10-10-10-10-10-10-10-10-10-10-10-10-10-10-10-10-10-10-10-10-10-10-13-13-13-13-13-13-13-13-|
|--------------------------------------------------------------------------------------------------|
|--------------------------------------------------------------------------------------------------|
|--------------------------------------------------------------------------------------------------|
|--------------------------------------------------------------------------------------------------|
|--------------------------------------------------------------------------------------------------|
|
| Gtrs I, II
|                                       PM---|
|--------------------------------------------------------------------------------------------------|
|--------------------------------------------------------------------------------------------------|
|--------------------------------------------------------------------------------------------------|
|--------------------------------------------------------------------------------------------------|
|---0-----------x-----------x-----------------------3p==========0-----------x-----------0----------|
|---0-----------x-----------x-----------0-----0-----3p==========0-----------x-----------0----------|


|-/12-12-12-12-12-12-12-12-12-12-12-12-12-12-12-12-12-12-12-12-12-12-12-12-18-18-18-18-18-18-18-18-|
|--------------------------------------------------------------------------------------------------|
|--------------------------------------------------------------------------------------------------|
|--------------------------------------------------------------------------------------------------|
|--------------------------------------------------------------------------------------------------|
|--------------------------------------------------------------------------------------------------|
|
|--/8--8--8--8--8--8--8--8--8--8--8--8--8--8--8--8--8--8--8--8--8--8--8--8-12-12-12-12-12-12-12-12-|
|--------------------------------------------------------------------------------------------------|
|--------------------------------------------------------------------------------------------------|
|--------------------------------------------------------------------------------------------------|
|--------------------------------------------------------------------------------------------------|
|--------------------------------------------------------------------------------------------------|
|
|               PM---|                                          PM---|
|--------------------------------------------------------------------------------------------------|
|--------------------------------------------------------------------------------------------------|
|--------------------------------------------------------------------------------------------------|
|--------------------------------------------------------------------------------------------------|
|---x-----------------------3p==========0-----------x----------------------/3----------------------|
|---x-----------0-----0-----3p==========0-----------x-----------0-----0----/3----------------------|


|-/10-10-10-10-10-10-10-10-10-10-10-10-10-10-10-10-10-10-10-10-10-10-10-10-13-13-13-13-13-13-13-13-|
|--------------------------------------------------------------------------------------------------|
|--------------------------------------------------------------------------------------------------|
|--------------------------------------------------------------------------------------------------|
|--------------------------------------------------------------------------------------------------|
|--------------------------------------------------------------------------------------------------|
|
|--/7--7--7--7--7--7--7--7--7--7--7--7--7--7--7--7--7--7--7--7--7--7--7--7-10-10-10-10-10-10-10-10-|
|--------------------------------------------------------------------------------------------------|
|--------------------------------------------------------------------------------------------------|
|--------------------------------------------------------------------------------------------------|
|--------------------------------------------------------------------------------------------------|
|--------------------------------------------------------------------------------------------------|
|
|                                       PM---|
|--------------------------------------------------------------------------------------------------|
|--------------------------------------------------------------------------------------------------|
|--------------------------------------------------------------------------------------------------|
|--------------------------------------------------------------------------------------------------|
|---0-----------x-----------x-----------------------3p==========0-----------x-----------0----------|
|---0-----------x-----------x-----------0-----0-----3p==========0-----------x-----------0----------|


|-------------------------------------------------------------------------------------------------|
|-13-13-13-13-13-13-17-17-17-17-17-17-13-13-13-13-------------------------------------------------|
|-------------------------------------------------15-15-15-15-15-15-15-15-14-14-14-14-14-14-14-14-|
|-------------------------------------------------------------------------------------------------|
|-------------------------------------------------------------------------------------------------|
|-------------------------------------------------------------------------------------------------|
|
|-------------------------------------------------------------------------------------------------|
|-10-10-10-10-10-10-13-13-13-13-13-13-10-10-10-10-------------------------------------------------|
|-------------------------------------------------12-12-12-12-12-12-12-12-10-10-10-10-10-10-10-10-|
|-------------------------------------------------------------------------------------------------|
|-------------------------------------------------------------------------------------------------|
|-------------------------------------------------------------------------------------------------|
|
|              PM---|                                          PM---|
|-------------------------------------------------------------------------------------------------|
|-------------------------------------------------------------------------------------------------|
|-------------------------------------------------------------------------------------------------|
|-------------------------------------------------------------------------------------------------|
|--x-----------------------3p==========0-----------x----------------------/3----------------------|
|--x-----------0-----0-----3p==========0-----------x-----------0-----0----/3----------------------|


|----------------------------------------------10S|
|--------------------------8h11p=8h11-------10----|
|--------------7h10p=7h10--------------7h10-------|
|--7h10p=7h10-------------------------------------|
|-------------------------------------------------|
|-------------------------------------------------|
|
|----------------------------------------------13S|
|-------------------------11h15p11h15-------13----|
|-------------10h14p10h14-------------10h14-------|
|-10h14p10h14-------------------------------------|
|-------------------------------------------------|
|-------------------------------------------------|
|
|                    PM|
|-------------------------------------------------|
|-------------------------------------------------|
|-------------------------------------------------|
|-------------------------------------------------|
|--0-----x-----x-----------3p====0-----x-----0----|
|--0-----x-----x-----0--0--3p====0-----x-----0----|


                            ~~~~~~~~~
|-17p13----12-------------/17-----16---|
|-------15----15-----------------------|
|----------------14p12-----------------|
|----------------------15--------------|
|--------------------------------------|
|--------------------------------------|
|
|                           ~~~~~~~~~
|-20p17----15--------------------------|
|-------18----18p15-------/18-----17---|
|-------------------15p14--------------|
|--------------------------------------|
|--------------------------------------|
|--------------------------------------|
|
|        PM|                  PM|
|--------------------------------------|
|--------------------------------------|
|----------------------------------x-x-|
|----------------------------------x-x-|
|--x-----------3p====0------x------x-x-|
|--x-----0--0--3p====0------x-0-0------|


    ~~~                   ~~
|---------------13h15h17-18--22p20p18----------|
|-/18--13h15h17-----------------------22p20p18-|
|----------------------------------------------|
|----------------------------------------------|
|----------------------------------------------|
|----------------------------------------------|
|
|   ~~~                   ~~
|---------------10h12h13-15--18p17p15----------|
|-/15--10h11h13-----------------------18p17p15-|
|----------------------------------------------|
|----------------------------------------------|
|----------------------------------------------|
|----------------------------------------------|
|
|----------------------------------------------|
|----------------------------------------------|
|----------------------------------------------|
|---8---8--------8--------9---9--------9-------|
|---8---8--------8-------10--10-------10-------|
|---8---8--------8--------9---9--------9-------|


   ~~                    ~~
|--------------15h17h18------------||
|-17--15h17h18----------20--18\----||
|----------------------------------||
|----------------------------------||
|----------------------------------||
|----------------------------------||
|
|  ~~                    ~~
|--------------12h13h15S18--17\----||
|-13--11h13h15---------------------||
|----------------------------------||
|----------------------------------||
|----------------------------------||
|----------------------------------||
|
|----------------------------------||
|----------------------------------||
|----------------------------------||
|-10--10-------10-------11--11--11-||
|-10--10-------10-------12--12--12-||
|-10--10-------10-------11--11--11-||


 Bridge
   ~~                  ~~~~~~~~~~          PM|    ~~~~~~~~~~~~~~~
|--------------------|-----------------|-------------------|-------------------|
|--------------------|-----------------|-------------------|-------------------|
|--------------------|-----------------|-------------------|-------------------|
|-10------------10S==|=9-------8-------|-7-----------------|-------------------|
|--------------------|-----------------|---8---8-(8)-------|-(8)---------------|
|--------------------|-----------------|-----7-------------|-------------------|
|
|  ~~                  ~~~~~~~~~~          PM|    ~~~~~~~~~~~~~~~
|--------------------|-----------------|-------------------|-------------------|
|--------------------|-----------------|-------------------|-------------------|
|--------------------|-----------------|-------------------|-------------------|
|--7-------------7S==|=6-------5-------|-3-----------------|-------------------|
|--------------------|-----------------|---5-3-5-(5)-------|-(5)---------------|
|--------------------|-----------------|-------------------|-------------------|
|
|     PM         PM|     PM|   PM|   PM    PM|    PM-|   PM      PM|   PM|   PM
|--------------------|-----------------|-------------------|-------------------|
|--------------------|-----------------|-------------------|-------------------|
|--------------------|-----------------|-------------------|-------------------|
|--0-----------------|-----------------|-------------------|-------------------|
|--0----------0------|-0-----0-----0---|-0-----0-------0---|--0------0-----0---|
|--0--0-0-(0)-0--0-0-|-0-0-0-0-0-0-0-0-|-0-0-0-0--0--0-0-0-|--0--0-0-0-0-0-0-0-|


    Gtrs I, II
       PM--|   PM|     PM|   PM|   PM    PM|   PM|   PM    PM|   PM|   PM
||-----------------|-----------------|-----------------|-------------------||
||o----------------|-----------------|-----------------|------------------o||
||-----------------|-----------------|-----------------|-------------------||
||--0--------------|-----------------|-----------------|-------------------||
||o-0--------0-----|-0-----0-----0---|-0-----0-----0---|-0-----0-----0----o||
||--0--0-0-0-0-0-0-|-0-0-0-0-0-0-0-0-|-0-0-0-0-0-0-0-0-|-0-0-0-0-0-0-0-0---||


  Gtr I
     PM--|   PM|     PM|   PM|   PM    PM|   PM|   PM    PM|   PM----|
|----------------|-----------------|-----------------|-----------------|
|----------------|-----------------|-----------------|-----------------|
|----------------|-----------------|-----------------|-----------------|
|-0--------------|-----------------|-----------------|-----------------|
|-0--------0-----|-0-----0-----0---|-0-----0-----0---|-0-----0-----0-0-|
|-0--0-0-0-0-0-0-|-0-0-0-0-0-0-0-0-|-0-0-0-0-0-0-0-0-|-0-0-0-0-0-0-0-0-|
|
| Gtr II
|    PM--|   PM|     PM|   PM|   PM    PM|   PM|   PM    PM|   PM----|
|----------------|-----------------|-----------------|-----------------|
|----------------|-----------------|-----------------|-----------------|
|----------------|-----------------|-----------------|-----------------|
|-7--------7-----|-7-----7-----7---|-7-----7-----7---|-7-----7-----7-7-|
|-5--------5-----|-5-----5-----5---|-5-----5-----5---|-5-----5-----5-5-|
|-0--0-0-0-0-0-0-|-0-0-0-0-0-0-0-0-|-0-0-0-0-0-0-0-0-|-0-0-0-0-0-0-----|


  Gtrs I, II
|--------------|-----------------|
|--------------|-----------------|
|--------------|-----------------|
|-/8--8---8-8--|-8--8-8-8S5-(5)--|
|-/8--8---8-8--|-8--8-8-8S5-(5)--|
|-/8--8---8-8--|-8--8-8-8S5-(5)--|


  Gtr III
   ~~                   ~~~~~~~~~~~
|--------------------|-------------------|
|--------------------|-------------------|
|--------------------|-------------------|
|-10------------10S==|==9--------8-------|
|--------------------|-------------------|
|--------------------|-------------------|
|
| Gtr IV
|  ~~                   ~~~~~~~~~~~
|--------------------|-------------------|
|--------------------|-------------------|
|--------------------|-------------------|
|-14------------14S==|=13-------12-------|
|--------------------|-------------------|
|--------------------|-------------------|
|
| Gtrs I, II
|     PM         PM|      PM|    PM|   PM
|--------------------|-------------------|
|--------------------|-------------------|
|--------------------|-------------------|
|--0-----------------|-------------------|
|--0----------0------|--0-----0------0---|
|--0--0-0-(0)-0--0-0-|--0-0-0-0--0-0-0-0-|


      PM|      ~~~~~~~~~~~~~~
|-----------------------|------------------|
|-----------------------|------------------|
|-----------------------|------------------|
|--7--------------------|-10---------------|
|-----8----8--(8)-------|------------------|
|-------7---------------|------------------|
|
|     PM|      ~~~~~~~~~~~~~~
|-----------------------|------------------|
|-----------------------|------------------|
|-----------------------|------------------|
|-10--------------------|------------------|
|----12-8-12-(12)-------|-12---------------|
|-----------------------|------------------|
|
|     PM|      PM-|   PM     PM|   PM|   PM
|-----------------------|------------------|
|-----------------------|------------------|
|-----------------------|------------------|
|-----------------------|------------------|
|--0-------0--------0---|--0-----0-----0---|
|--0--0-0--0---0--0-0-0-|--0-0-0-0-0-0-0-0-|


    Gtrs I, II
       PM--|   PM|     PM|   PM|   PM    PM|   PM|   PM    PM|   PM|   PM
||-----------------|-----------------|-----------------|-------------------||
||o----------------|-----------------|-----------------|------------------o||
||-----------------|-----------------|-----------------|-------------------||
||--0--------------|-----------------|-----------------|-------------------||
||o-0--------0-----|-0-----0-----0---|-0-----0-----0---|-0-----0-----0----o||
||--0--0-0-0-0-0-0-|-0-0-0-0-0-0-0-0-|-0-0-0-0-0-0-0-0-|-0-0-0-0-0-0-0-0---||


     PM--|   PM|     PM|   PM|   PM    PM|    PM---------|                        PM
|----------------|-----------------|---------------------------------------------------------|
|----------------|-----------------|---------------------------------------------------------|
|----------------|-----------------|---------------------------------------------------------|
|-0--------------|-----------------|---------------------------------------------------------|
|-0--------0-----|-0-----0-----0---|-0-----0--------------------------0----------------------|
|-0--0-0-0-0-0-0-|-0-0-0-0-0-0-0-0-|-0-0-0-0--0-----------0-----------0-----------0----------|
|
| Gtr V
|----------------|-----------------|---------------------------------------------------------|
|----------------|-----------------|---------------------------------------------------------|
|----------------|-----------------|---------------------------------------------------------|
|----------------|-----------------|---------------------------------------------------------|
|----------------|-----------------|------------------12h13h15----------------13h15h17p15p13-|
|----------------|-----------------|---------12h14h15----------12h15-14h15h17----------------|


               PM---------|                        PM---------------------------------|
|----------------------------------------------------------------------------------------------||
|----------------------------------------------------------------------------------------------||
|----------------------------------------------------------------------------------------------||
|----------------------------------------------------------------------------------------------||
|--0-----------------------------------0-----------------------------------0-----------0-------||
|--0-----------0-----------0-----------0-----------0-----------0-----------0-----------0-------||
|
|                                                                                      ~~~~~
|----------------------------------------------------------------------------15h17h18-20b22----||
|-------------------------------------------------------15h17h18p17-15h17h18-------------------||
|-------------------------15----------------------15h17----------------------------------------||
|----------------15h17h19----19p17p15----15h17h19----------------------------------------------||
|-------15h17h19----------------------19-------------------------------------------------------||
|-15h17----------------------------------------------------------------------------------------||


 Interlude
  Gtr I
|------------------|---------------------|
|------------------|---------------------|
|--3---3--3---3-3--|--3----3----3----3---|
|--3---3--3---3-3--|--3----3----3----3---|
|--1---1--1---1-1--|--1----1----1----1---|
|------------------|---------------------|
|
| Gtr II
|------------------|---------------------|
|------------------|---------------------|
|--3---3--3---3-3--|--3-3--3-3--3-3--3-3-|
|--3---3--3---3-3--|--3-3--3-3--3-3--3-3-|
|--1---1--1---1-1--|--1-1--1-1--1-1--1-1-|
|------------------|---------------------|
|
| Gtr VI
|------------------|---------------------|
|-15--17-17--17----|-15---15---15---13---|
|-15--15-15--15----|-15---15---15---14---|
|------------------|---------------------|
|------------------|---------------------|
|------------------|---------------------|


|------------------|---------------------|
|------------------|---------------------|
|--5-------5-----5-|--5-5--5-5--5-5--5-5-|
|--5-------5-----5-|--5-5--5-5--5-5--5-5-|
|--3-------3-----3-|--3-3--3-3--3-3--3-3-|
|------------------|---------------------|
|
|------------------|---------------------|
|------------------|---------------------|
|--5-------5-----5-|--5----5----5----5-5-|
|--5-------5-----5-|--5----5----5----5-5-|
|--3-------3-----3-|--3----3----3----3-3-|
|------------------|---------------------|
|
|------------------|---------------------|
|-17--17--18--18---|-17---17---20---20---|
|-17--17--17--17---|-17---17---19---19---|
|------------------|---------------------|
|------------------|---------------------|
|------------------|---------------------|


  Bb5
  Gtr II
   |   |  |   |      |    |     |     |    |
   /   /  /   /      /    /     /     /    /

  Gtr I
|----------------------|-----------------------|
|----------------------|-----------------------|
|--3---3--3---3------3-|--3--3--3--3--3-3--3-3-|
|--3---3--3---3------3-|--3--3--3--3--3-3--3-3-|
|--1---1--1---1------1-|--1--1--1--1--1-1--1-1-|
|----------------------|-----------------------|
|
| Gtr V
|----------------------|-----------------------|
|----------------------|-----------------------|
|--7-----10-----(10)---|-15-15--x-14-14-x-12-x-|
|--x------x------------|--x--x-----x--x----x---|
|--5------8------(8)---|-13-13--x-12-12-x-10-x-|
|----------------------|-----------------------|
|
| Gtr VI
|----------------------|-----------------------|
|-15--17-17--17--------|-15----15----15---13---|
|-15--15-15--15--------|-15----15----15---14---|
|----------------------|-----------------------|
|----------------------|-----------------------|
|----------------------|-----------------------|


  C5
   |       |     |    | | | | | | | |
   /       /     /    / / / / / / / /

|------------------|------------------|
|------------------|------------------|
|--5-------5-----5-|--5---5---5---5-5-|
|--5-------5-----5-|--5---5---5---5-5-|
|--3-------3-----3-|--3---3---3---3-3-|
|------------------|------------------|
|
|------------------|------------------|
|------------------|------------------|
|--9------10-------|-12---------------|
|--x-------x-------|--x---------------|
|--7-------8-------|-10---------------|
|------------------|------------------|
|
|------------------|------------------|
|-17--17--18--18---|-17--17--20--20---|
|-17--17--17--17---|-17--17--19--19---|
|------------------|------------------|
|------------------|------------------|
|------------------|------------------|


  Bb5
  Gtr II
   |    |  |    |   |    |    |    |    |
   /    /  /    /   /    /    /    /    /

  Gtr I
|---------------------|---------------------|
|---------------------|---------------------|
|--3----3--3----3---3-|--3-3--3-3--3-3--3-3-|
|--3----3--3----3---3-|--3-3--3-3--3-3--3-3-|
|--1----1--1----1---1-|--1-1--1-1--1-1--1-1-|
|---------------------|---------------------|
|
|    PM      PM   TP     TPTP TPTP TPTP TPTP
|---------------------|---------5--6-5------|
|--3----3s=6----6-----|----5--6---------6-5-|
|--3--------------3---|--7------------------|
|--3-0-------0--------|---------------------|
|---------------------|---------------------|
|---------------------|---------------------|
|
|---------------------|---------------------|
|-15---17-17---17-----|-15---15---15---13---|
|-15---15-15---15-----|-15---15---15---14---|
|---------------------|---------------------|
|---------------------|---------------------|
|---------------------|---------------------|


  C5
   |         |      |    |  |  | |   | | | |
   /         /      /    /  /  / /   / / / /

|---------------------|----------------------|
|---------------------|----------------------|
|--5---------5------5-|--5-----5-----5---5-5-|
|--5---------5------5-|--5-----5-----5---5-5-|
|--3---------3------3-|--3-----3-----3---3-3-|
|---------------------|----------------------|
|
|         TP TPTP TP
|--8----8-6--5------5-|-(5)s6--5-x-/22--20---|
|--------------8--6---|----------------------|
|----7----------------|----------------------|
|---------------------|----------------------|
|---------------------|----------------------|
|---------------------|----------------------|
|
|---------------------|----------------------|
|-17---17---18---18---|-17----17----20--20---|
|-17---17---17---17---|-17----17----19--19---|
|---------------------|----------------------|
|---------------------|----------------------|
|---------------------|----------------------|


  Gtrs I, II
|----------------|---------------|----------------|----------------||
|----------------|---------------|----------------|----------------||
|--3--3---3-3-3--|--4--4--4-4-4--|--5--5---5-5-5--|--6--6--6-6-6-6-||
|--3--3---3-3-3--|--5--5--5-5-5--|--5--5---5-5-5--|--7--7--7-7-7-7-||
|--1--1---1-1-1--|--2--2--2-2-2--|--3--3---3-3-3--|--4--4--4-4-4-4-||
|----------------|---------------|----------------|----------------||
|
|  ~~~~~~~~~~~~~~~~~~~~~~~~~~~~~~~~~~~~~~~~~~~~~~~~~~~~
|-18-------------|-19------------|-20-------------|-21-------------||
|----------------|---------------|----------------|----------------||
|----------------|---------------|----------------|----------------||
|----------------|---------------|----------------|----------------||
|----------------|---------------|----------------|----------------||
|----------------|---------------|----------------|----------------||


   Chorus
    Gtrs I, IV
||------------------|-----------------|-----------------|------------------|
||o-----------------|-----------------|-----------------|------------------|
||------------------|-5----(5)-5-(5)--|-----------------|--3-----(3)-3-(3)-|
||--0----(0)-0-(0)--|-5----(5)-5-(5)--|-3----(3)-3-(3)--|--3-----(3)-3-(3)-|
||o-0----(0)-0-(0)--|-3----(3)-3-(3)--|-3----(3)-3-(3)--|--1-----(1)-1-(1)-|
||--0----(0)-0-(0)--|-----------------|-3----(3)-3-(3)--|------------------|
|
|   Gtr II
||------------------|-----------------|-----------------|------------------|
||o-----------------|-----------------|-----------------|------------------|
||--7----(7)-7-(7)--|-5----(5)-5-(5)--|-----------------|-10---9-----7-----|
||--7----(7)-7-(7)--|-5----(5)-5-(5)--|-3----(3)-3-(3)--|--x---x-----x-----|
||o-5----(5)-5-(5)--|-3----(3)-3-(3)--|-3----(3)-3-(3)--|--8---7-----5-----|
||--0----(0)-0-(0)--|-----------------|-3----(3)-3-(3)--|------------------|


|-------------------|-------------------|------------------|
|-------------------|-------------------|------------------|
|-------------------|-5----(5)--5--(5)--|------------------|
|-0----(0)--0--(0)--|-5----(5)--5--(5)--|--3----(3)-3-(3)--|
|-0----(0)--0--(0)--|-3----(3)--3--(3)--|--3----(3)-3-(3)--|
|-0----(0)--0--(0)--|-------------------|--3----(3)-3-(3)--|
|
|-------------------|-------------------|------------------|
|-------------------|-------------------|------------------|
|-7----(7)-10-(10)--|-9----(9)-12-(12)--|-10---------------|
|-x---------x-------|-x---------x-------|--x---------------|
|-5----(5)--8--(8)--|-7----(7)-10-(10)--|--8---------------|
|-------------------|-------------------|------------------|


                          PM|   PM|
|------------------||---------------|----------*|
|-----------------o||---------------|----------*|
|-3----(3)-3-(3)---||-2-------2-----|-2--------*|
|-3----(3)-3-(3)---||-2---2-2-2-2-2-|-2--------*|
|-1----(1)-1-(1)--o||-0---0-0-0-0-0-|-0--------*|
|------------------||---------------|----------*|
|
|                         PM|   PM|
|------------------||---------------|----------*|
|-----------------o||---------------|----------*|
|-7----(7)-3-(3)---||-2-------2-----|-2--------*|
|-x--------x-------||-2---2-2-2-2-2-|-2--------*|
|-5----(5)-1-(1)--o||-0---0-0-0-0-0-|-0--------*|
|------------------||---------------|----------*|
Tap to rate this tab
# A B C D E F G H I J K L M N O P Q R S T U V W X Y Z