Guitaretab - guitar tabs
Song name
# A B C D E F G H I J K L M N O P Q R S T U V W X Y Z

Avenged Sevenfold - Afterlife tab

=======Avenged Sevenfold Solo  (how Synyster Gates does it)=========

===========Rest in piece James Owen (The Rev) Sullivan==============
                  You are missed amongst us

Pm (. . .): Palm Mute
SP ('''''): Sweep Picking
P: Parts he picks
h: Hammer on
p: Pull off
/: Slide up
\: Slide down
~~: Vibrato:

   P P P   P  (the rest is h/o's p/o's and slides)
e|--------------------------|-----------|-------|--------------------|
B|---------5h6h8p6p5--5h6h8/|-15~~------|-17~~--|-20~~---------------|
G|-----5h7----------h7------|-----------|-------|--------------------|
D|--------------------------|-----------|-------|--------------------|
A|-5-8----------------------|-----------|-------|--------------------|
D|--------------------------|-----------|-------|--------------------|
Pm . .                      |  1st time,| 2nd,  |3rd


  P  (the rest is hammerons pulloffs and slides)
e|7/13\-8p6h8p6p5-----------h5h8p5h6h8-------------------------------|
B|----------------8p5h6h8--------------5p3h5p3/2----------------h2h3-|
G|-----------------------------------------------h4/6\4\2---h2h3-----|
D|--------------------------------------------------------3----------|
A|-------------------------------------------------------------------|
D|-------------------------------------------------------------------|

(This is the harmony part. I didn't tab the other part. But other people probably has, 
them out instead)
   P     P            P P P P P          P P P
e|-------------------------------------------------------------------|
B|-4b(5)/6-/12b(13)---6-5-6-5-6/14b(15)\-6-5-6-/-17b(18)~~~----------|
G|-------------------------------------------------------------------|
D|-------------------------------------------------------------------|
A|-------------------------------------------------------------------|
D|-------------------------------------------------------------------|

   P  P        P  P
e|-------------------------------------------------------------------|
B|-15-17^b(18)-17-18b(20)~~------------------------------------------|
G|-------------------------------------------------------------------|
D|-------------------------------------------------------------------|
A|-------------------------------------------------------------------|
D|-------------------------------------------------------------------|

Sweeping part:
   P P P P P P P P P P P P P P SP''''''''''''''P P P P
e|-171615131516171615131516171513--------------13151617~~----------------|
B|-------------------------------15----------15--------------------------|
G|---------------------------------14------14---------------------------|
D|-----------------------------------15--15------------------------------|
A|-------------------------------------17--------------------------------|
D|-----------------------------------------------------------------------|
[ Tab from: http://www.guitaretab.com/a/avenged-sevenfold/225755.html ]
   P P P P P P P P SP''''P SP''''''''''''''P P P
e|-131210--1012131210----1310--------------101213--------------------|
B|-------11----------11------11----------11--------------------------|
G|---------------------10------10------10----------------------------|
D|-------------------------------12--12------------------------------|
A|---------------------------------13--------------------------------|
D|-------------------------------------------------------------------|

   P P P P P P P P P P  P SP'''''''   SP''''''P P P P
e|-18171615161718171615/1310------------------15161718~~-------------|
B|--------------------------11--------------15-----------------------|
G|----------------------------10----------15-------------------------|
D|------------------------------12------15---------------------------|
A|--------------------------------13//17-----------------------------|
D|-------------------------------------------------------------------|

   P P P P P P P P P SP''''''''''''''P P P P
e|-17161513151617161513--------------13151617//22--------------------|
B|---------------------15----------15--------------------------------|
G|-----------------------14------14----------------------------------|
D|-------------------------15--15------------------------------------|
A|---------------------------17--------------------------------------|
D|-------------------------------------------------------------------|

   P SP''''''''''''''
e|-1310--------------------------------------------------------------|
B|-----11----------11------------------------------------------------|
G|-------10------10--------------------------------------------------|
D|---------12--12----------------------------------------------------|
A|-----------13------------------------------------------------------|
D|-------------------------------------------------------------------|

Speedpicking part: Notice that you aren't playing the same thing all over.
On the first part you play 101310 two times in a row once. It's marked.

   P P P P P P P P P P P P P P P P P P P P P P P P P P P
e|-101310--101510--101310--101510--101310--101310--101510//----------|
B|-------13------13------13------13------13------13------------------|
G|--------------------------------|______________|-------------------|
D|-------------------------------------------------------------------|
A|-------------------------------------------------------------------|
D|-------------------------------------------------------------------|

   P P P P P P P P  P P P P P P P P  P P P P
e|-131513--13151317-131513--13151317-131513--------------------------|
B|-------17---------------17---------------17------------------------|
G|-------------------------------------------------------------------|
D|-------------------------------------------------------------------|
A|-------------------------------------------------------------------|
D|-------------------------------------------------------------------|

Out from speedpicking part:
    P P P P P P P P P P P P P P P P P P P P P P    P        P
e|--181715------171513----------------------------|------------------|
B|--------181715------171513----------------------|13b(15)--20b(22)~~|
G|--------------------------141312----------------|------------------|
D|--------------------------------141312----------|------------------|
A|--------------------------------------141312----|------------------|
D|--------------------------------------------12\7|------------------|
                                                   This is if you don't have whammy.

If you want to see my cover of this solo: check me out on youtube, here's a link.
http://www.youtube.com/watch?v=MBPpVEyg_Bg
Related for Afterlife tab
Afterlife chords by Avenged Sevenfold