Song name
# A B C D E F G H I J K L M N O P Q R S T U V W X Y Z

Avenged Sevenfold - 4 00 Am tab

hi guitar heros!

I know that this song is not out yet but I tabbed out the preview as best as I 
could. The timings (seconds) are for the preview on YouTube. I'm sorry but you 
will need to work out the strumming, it's surprisingly easy to work out. Enjoy!

0:01 - 0:06
e|----------------------------------------|
B|----------------------------------------|
G|--5-------------------------------------|
D|--5-----5------3------/7----------------|
A|--3-----5------3------/7----------------|
E|--------5------3------/7----------------|

0:07 - 0:20
e|-------------------------|
B|---------------- --------|
G|-------------------------|
D|--3-------7-------8------|       x2
A|--3-------7-------8------|
E|--3-------7-------8------|

0:21 - 0:26
e|-----------------------------------------------|
B|-----------------------------------------------|
G|-----------5--------8~-------------------------|
D|---3-------5--------8~-------------------------|
A|---3-------3--------6~-------------------------|
E|---3-------------------------------------------|

0:27 - end
e|-------------------------------------------------------------|
B|-------------------------------------------------------------|
G|-------------------------------------------------------------|
D|------------------7------------------------------------------|
A|--------5--0----------8--------------------------------------|
E|------------------------------0--0--0------------------------|
                            pm  .  .  .  
Tap to rate this tab
 
# A B C D E F G H I J K L M N O P Q R S T U V W X Y Z