Song name
# A B C D E F G H I J K L M N O P Q R S T U V W X Y Z

Avenged Sevenfold - Bat Country Acoustic tab

100% using hearing method.
Instrumental originally by Eric Draven.
Vocal by M.Shadows
A7X-Bat Country Acoustic Version!



Intro:
e|--------------------------------------------------------------------------|
b|-----------------6-----6-6-6/9-8-6-----------------6-----6-6-6/9-6-5------|
g|-7--55--7--55--7---5/8-------------7--55--7--55--7---5/8------------------|
d|--------------------------------------------------------------------------|
a|--------------------------------------------------------------------------|
D|--------------------------------------------------------------------------|


Pre Verse:
e|--------------------------------------------------------------------------|
b|--------------------------------------------------------------------------|
g|-7~--5~-------------7~--5~------------5-----5-----------------------------|
d|--------7~--5~--5h7--------5~--3h5/7-----7--------------------------------|
a|--------------------------------------------------------------------------|
D|--------------------------------------------------------------------------|


Verse 1:                                                                  X2
e|--------------------------------------------------------------------------|
b|------------------6-------------------------------------------------------|
g|-7--55--7--55---7---7-5-----7-5-------------------------------------------|
d|------------------------7-6-----7-6---------------------------------------|
a|------------------------------------8-------------------------------------|
D|--------------------------------------------------------------------------|


Pre Chorus:
e|--------------------------------------------------------------------------|
b|-----5-6-8-5-6-----5-6-8-6-8-10-10-10-10-11-11-11-11-13-13-13-13-11-10-8-6|
g|-5-7-----------5-7--------------------------------------------------------|
d|--------------------------------------------------------------------------|
a|--------------------------------------------------------------------------|
D|--------------------------------------------------------------------------|


Chorus:
e|--------------------------------------------------------------------------|
b|-----6-5h6p5-----6/8-8-8-6-6-6p5------------------------------------------|
g|-7-7---------5-7-----------------5-5-555-5-----5/6-6-6-5---5h6p5----------|
d|-------------------------------------------567-----------5-------5--------|
a|--------------------------------------------------------------------------|
D|--------------------------------------------------------------------------|

e|----------------------------------------------------------------------------|
b|----------------------------------------------------------------------------|
g|-5--77----------------------------------------------------------------------|
d|----------------------------------------------------------------------------|
a|----------------------------------------------------------------------------|
D|----------------------------------------------------------------------------|
Tap to rate this tab
 
# A B C D E F G H I J K L M N O P Q R S T U V W X Y Z