Song name
# A B C D E F G H I J K L M N O P Q R S T U V W X Y Z

Avenged Sevenfold - Lost It All tab

Lost It All
Avenged Sevenfold
This is my first Tab. Sorry if I mess up certain parts.

Drop D tuning


Intro
e|---------------------------------------------------------------------|
B|---------------------------------------------------------------------|
G|---------------------------------------------------------------------|
D|--0-1-1-1-0---0--0/1---0-1-1-1-0---1/3--3/8---0-1-1-1-0---0--0/1-----|
A|--0-1-1-1-0---0--0/1---0-1-1-1-0---1/3--3/8---0-1-1-1-0---0--0/1-----|
D|--0-1-1-1-0---0--0/1---0-1-1-1-0---1/3--3/8---0-1-1-1-0---0--0/1-----|
After you play this a second time, you play F four times instead of two.

e|---------------------|  -------------------------|
B|---------------------|  -------------------------|
G|---------------------|x2-------------------------|
D|--0-1-1-1-0---3---3--|  ---3---3---3---3---------|
A|--0-1-1-1-0---3---3--|  ---3---3---3---3---------|
D|--0-1-1-1-0---3---3--|  ---3---3---3---3---------|


Verse (1 time without singing, 4 times with singing)
e|---------------------------------------|
B|---------------------------------------|
G|---------------------------------------|
D|--0---0---0-0---0---0-0----------------|
A|--0---0---0-0---0---0-0---5/8\5--------|
D|--0---0---0-0---0---0-0--------6\3/6---|

Pre-Chorus
Guitar 1
e|----------------------------------------------------------|
B|-----------------------------------------------------8----|
G|---------------------------------------------------6---6--|x2
D|--2---2-2-2-2---2---2-2-2-2---2---2-2-2-2------5-8--------|
A|--2---2-2-2-2---2---2-2-2-2---2---2-2-2-2---/7------------|
D|--2---2-2-2-2---2---2-2-2-2---2---2-2-2-2-----------------|

Guitar 2
e|----------------------------------------------------------|
B|----------------------------------------------------------|
G|-----------------------------------------------------9----|x2
D|--2---2-2-2-2---2---2-2-2-2---2---2-2-2-2----------8---8--|
A|--2---2-2-2-2---2---2-2-2-2---2---2-2-2-2--------7--------|
D|--2---2-2-2-2---2---2-2-2-2---2---2-2-2-2---/7-8----------|

Chorus
Guitar 1
e|----------------------------------------------------------|
B|----------------------------------------------------------|
G|---/10------10\9------9/12------12\7---6------------------|
D|----------------------------------------------------------|
A|----------------------------------------------------------|
D|----------------------------------------------------------|

e|----------------------------------------------------------|
B|----------------------------------------------------------|
G|---/10------10\9---12---14------14/15---14----------------|
D|----------------------------------------------------------|
A|----------------------------------------------------------|
D|----------------------------------------------------------|

Guitar 2
e|----------------------------------------------------------|
B|----------------------------------------------------------|
G|----/7------7\5------5\4------4\3---2---------------------|
D|----------------------------------------------------------|
A|----------------------------------------------------------|
D|----------------------------------------------------------|

e|----------------------------------------------------------|
B|----------------------------------------------------------|
G|---/7------7\5---9---10------10/12---10-------------------|
D|----------------------------------------------------------|
A|----------------------------------------------------------|
D|----------------------------------------------------------|

Guitar 3
e|----------------------------------------------------------|
B|----------------------------------------------------------|
G|--------5------4------3------2----------------------------|
D|-0------5------5------3------2----------------------------|
A|-0------3------2------1------0----------------------------|
D|-0--------------------------------------------------------|

e|----------------------------------------------------------|
B|----------------------------------------------------------|
G|--------5-------------------------------------------------|
D|-0------5------3---5---3----------------------------------|
A|-0------3------3---5---3----------------------------------|
D|-0-------------3---5---3----------------------------------|

Verse (1 time without singing, 4 times with singing)
e|---------------------------------------|
B|---------------------------------------|
G|---------------------------------------|
D|--0---0---0-0---0---0-0----------------|
A|--0---0---0-0---0---0-0---5/8\5--------|
D|--0---0---0-0---0---0-0--------6\3/6---|

Pre-Chorus
Guitar 1
e|----------------------------------------------------------|
B|-----------------------------------------------------8----|
G|---------------------------------------------------6---6--|x2
D|--2---2-2-2-2---2---2-2-2-2---2---2-2-2-2------5-8--------|
A|--2---2-2-2-2---2---2-2-2-2---2---2-2-2-2---/7------------|
D|--2---2-2-2-2---2---2-2-2-2---2---2-2-2-2-----------------|

Guitar 2
e|----------------------------------------------------------|
B|----------------------------------------------------------|
G|-----------------------------------------------------9----|x2
D|--2---2-2-2-2---2---2-2-2-2---2---2-2-2-2----------8---8--|
A|--2---2-2-2-2---2---2-2-2-2---2---2-2-2-2--------7--------|
D|--2---2-2-2-2---2---2-2-2-2---2---2-2-2-2---/7-8----------|

Chorus
Guitar 1
e|----------------------------------------------------------|
B|----------------------------------------------------------|
G|---/10------10\9------9/12------12\7---6------------------|
D|----------------------------------------------------------|
A|----------------------------------------------------------|
D|----------------------------------------------------------|

e|----------------------------------------------------------|
B|----------------------------------------------------------|
G|---/10------10\9---12---14------14/15---14----------------|
D|----------------------------------------------------------|
A|----------------------------------------------------------|
D|----------------------------------------------------------|

Guitar 2
e|----------------------------------------------------------|
B|----------------------------------------------------------|
G|----/7------7\5------5\4------4\3---2---------------------|
D|----------------------------------------------------------|
A|----------------------------------------------------------|
D|----------------------------------------------------------|

e|----------------------------------------------------------|
B|----------------------------------------------------------|
G|---/7------7\5---9---10------10/12---10-------------------|
D|----------------------------------------------------------|
A|----------------------------------------------------------|
D|----------------------------------------------------------|

Guitar 3
e|----------------------------------------------------------|
B|----------------------------------------------------------|
G|--------5------4------3------2----------------------------|
D|-0------5------5------3------2----------------------------|
A|-0------3------2------1------0----------------------------|
D|-0--------------------------------------------------------|

e|----------------------------------------------------------|
B|----------------------------------------------------------|
G|--------5-------------------------------------------------|
D|-0------5------3---5---3----------------------------------|
A|-0------3------3---5---3----------------------------------|
D|-0-------------3---5---3----------------------------------|

Bridge
e|----------------------------------------------------------|
B|----------------------------------------------------------|
G|-----------------------------------5----------------------|x3
D|--8----8----8--8------3----3----3--5----------------------|
A|--8----8----8--8------3----3----3--3----------------------|
D|--8----8----8--8------3----3----3-------------------------|

e|----------------------------------------------------------|
B|----------------------------------------------------------|
G|----------------------------------------------------------|
D|--8--8--8--8--10--10--10--10--11--11--11--11--12----10----|
A|--8--8--8--8--10--10--10--10--11--11--11--11--12----10----|
D|--8--8--8--8--10--10--10--10--11--11--11--11--12----10----|

e|----------------------|
B|----------------------|
G|----------------------|
D|--8------10---11---0--|
A|--8------10---11---0--|
D|--8------10---11---0--|

I'll add the harmonies to the bridge and solo soon.

Rhythm to solo

e|----------------------------------------------------------|
B|----------------------------------------------------------|
G|----------------------------------------------------------|x2
D|-0-----------------------------5--0--6--0-5---------------|
A|-0-----------------------------5--0--6--0-5---------------|
D|-0-----------------------------5--0--6--0-5---------------|

e|----------------------------------------------------------|
B|----------------------------------------------------------|
G|----------------------------------------------------------|x2
D|-0---------0---------0---------5--0--6--0-5---------------|
A|-0---------0---------0---------5--0--6--0-5---------------|
D|-0-0-0-0-0-0-0-0-0-0-0-0-0-0-0-5--0--6--0-5---------------|

Guitar 1
e|----------------------------------------------------------|
B|-----------------------------------------------------8----|
G|---------------------------------------------------6---6--|x2
D|--2---2-2-2-2---2---2-2-2-2---2---2-2-2-2------5-8--------|
A|--2---2-2-2-2---2---2-2-2-2---2---2-2-2-2---/7------------|
D|--2---2-2-2-2---2---2-2-2-2---2---2-2-2-2-----------------|

Guitar 2
e|----------------------------------------------------------|
B|----------------------------------------------------------|
G|-----------------------------------------------------9----|x2
D|--2---2-2-2-2---2---2-2-2-2---2---2-2-2-2----------8---8--|
A|--2---2-2-2-2---2---2-2-2-2---2---2-2-2-2--------7--------|
D|--2---2-2-2-2---2---2-2-2-2---2---2-2-2-2---/7-8----------|

e|----------------------------------------------------------|
B|----------------------------------------------------------|
G|----------------------------------------------------------|x2
D|-0---------0---------0---------5--0--6--0-5---------------|
A|-0---------0---------0---------5--0--6--0-5---------------|
D|-0-0-0-0-0-0-0-0-0-0-0-0-0-0-0-5--0--6--0-5---------------|

e|-----------------------------------|
B|-----------------------------------|
G|-----------------------------------|x2
D|--8------10------11------12---10---|
A|--8------10------12------12---10---|
D|--8------10------11------12---10---|

e|----------------------------------------------------------|
B|----------------------------------------------------------|
G|----------------------------------------------------------|
D|--8------10-----------------------------------------------|
A|--8------10-----------------------------------------------|
D|--8------10-----------------------------------------------|


Verse (1 time without singing, 4 times with singing)
e|---------------------------------------|
B|---------------------------------------|
G|---------------------------------------|
D|--0---0---0-0---0---0-0----------------|
A|--0---0---0-0---0---0-0---5/8\5--------|
D|--0---0---0-0---0---0-0--------6\3/6---|


Pre-Chorus
Guitar 1
e|----------------------------------------------------------|
B|-----------------------------------------------------8----|
G|---------------------------------------------------6---6--|x2
D|--2---2-2-2-2---2---2-2-2-2---2---2-2-2-2------5-8--------|
A|--2---2-2-2-2---2---2-2-2-2---2---2-2-2-2---/7------------|
D|--2---2-2-2-2---2---2-2-2-2---2---2-2-2-2-----------------|

Guitar 2
e|----------------------------------------------------------|
B|----------------------------------------------------------|
G|-----------------------------------------------------9----|x2
D|--2---2-2-2-2---2---2-2-2-2---2---2-2-2-2----------8---8--|
A|--2---2-2-2-2---2---2-2-2-2---2---2-2-2-2--------7--------|
D|--2---2-2-2-2---2---2-2-2-2---2---2-2-2-2---/7-8----------|

Chorus
Guitar 1
e|----------------------------------------------------------|
B|----------------------------------------------------------|
G|---/10------10\9------9/12------12\7---6------------------|
D|----------------------------------------------------------|
A|----------------------------------------------------------|
D|----------------------------------------------------------|

e|----------------------------------------------------------|
B|----------------------------------------------------------|
G|---/10------10\9---12---14------14/15---14----------------|
D|----------------------------------------------------------|
A|----------------------------------------------------------|
D|----------------------------------------------------------|

Guitar 2
e|----------------------------------------------------------|
B|----------------------------------------------------------|
G|----/7------7\5------5\4------4\3---2---------------------|
D|----------------------------------------------------------|
A|----------------------------------------------------------|
D|----------------------------------------------------------|

e|----------------------------------------------------------|
B|----------------------------------------------------------|
G|---/7------7\5---9---10------10/12---10-------------------|
D|----------------------------------------------------------|
A|----------------------------------------------------------|
D|----------------------------------------------------------|

Guitar 3
e|----------------------------------------------------------|
B|----------------------------------------------------------|
G|--------5------4------3------2----------------------------|
D|-0------5------5------3------2----------------------------|
A|-0------3------2------1------0----------------------------|
D|-0--------------------------------------------------------|

e|----------------------------------------------------------|
B|----------------------------------------------------------|
G|--------5-------------------------------------------------|
D|-0------5------3---5---3----------------------------------|
A|-0------3------3---5---3----------------------------------|
D|-0-------------3---5---3----------------------------------|

Outro
e|--------------------|
B|--------------------|
G|--------------------|
D|--0--0--0--0--0--0--|
A|--0--0--0--0--0--0--|
D|--0--0--0--0--0--0--|

e|---------------------------------------------------------------------|
B|---------------------------------------------------------------------|
G|---------------------------------------------------------------------|
D|--0-1-1-1-0---0--0/1---0-1-1-1-0---1/3--3/8---0-1-1-1-0---0--0/1-----|
A|--0-1-1-1-0---0--0/1---0-1-1-1-0---1/3--3/8---0-1-1-1-0---0--0/1-----|
D|--0-1-1-1-0---0--0/1---0-1-1-1-0---1/3--3/8---0-1-1-1-0---0--0/1-----|

e|------------------------------------------------------------------|
B|------------------------------------------------------------------|
G|------------------------------------------------------------------|
D|--0-1-1-1-0---3---3---3---3-------0---------------0--0--0--0--0--0|
A|--0-1-1-1-0---3---3---3---3-------0---------------0--0--0--0--0--0|
D|--0-1-1-1-0---3---3---3---3-------0---------------0--0--0--0--0--0|




I'll add any missing parts as soon as I can, and if there are any corrections needed, let me know.
Tap to rate this tab
# A B C D E F G H I J K L M N O P Q R S T U V W X Y Z