Song name
# A B C D E F G H I J K L M N O P Q R S T U V W X Y Z

Avenged Sevenfold - Lost It All tab

-------------------------------------------------------------------------------
			     Lost It All - Avenged Sevenfold
-------------------------------------------------------------------------------
Tabbed by: Daarikon
Email: nick.wittman@hotmail.co.uk

Tuning: Drop D: D A D G B E
Intro:
/=====================x2==================\
e|------------------------------------------------------------------------------|
B|------------------------------------------------------------------------------|
G|------------------------------------------------------------------------------|
D|----0---------0----------0---------0------------------------------------------|
A|----0-0-1-----0-3-7/-----0-0-1-----0-3-3----3-3---------------0-5s8-5---------|
D|00000-0-1-00000-3-7/-00000-0-1-00000-3-3----3-3--0-0-0-0-0-0--0-------6-3-6---|
                           \-3-/ \-3--------------------------------------------|
Verse 1 (Double speed)

  /============x4============\
e|----------------------------|
B|----------------------------|
G|----------------------------|
D|----------------------------|
A|0-0-0-0-0-0-0-5s8-5---------|
D|0-0-0-0-0-0-0-------6-3-6---|

Pre-Chorus
 /==============x2==============\
e|------------------------------|
B|------------------------------|
G|-----------------------9------|
D|2-----2--------------8---8-\--|
A|2-----2-----------7-----------|
D|2-22222-2222-5s8--------------|

Chorus
e|-----------------------------------------------------------------------------------------------|
B|-----------------------------------------------------------------------------------------------|
G|----------5-----------------3------2----------5------------------------------------------------|
D|0--0------5--------5--------3------2----0-----5-----3-----5---3--3--3--------------------------|
A|0--0------3--------2--------1------0----0-----3-----3-----5---3--3--3---0-0-0-0-0-0-5s8-5------|
D|0-00------------------------------------0-----------3-----5---3--3--3---0-0-0-0-0-0-------6-3-6|

Repeat Verse and Pre-Chorus

Chorus 2
e|------------------------------------------------------------------------------------|
B|------------------------------------------------------------------------------------|
G|------------------5-----------------------3-----2---------------5--------------3--2-|
D|0--0-0--0-0-------5-----------5-----------3-----2-----0---------5--------5-----3--2-|
A|0--0-0--0-0-------3-----------2-----------1-----0-----0---------3--------2-----1--0-|
D|0--0-0--0-0-------------------------------------------0-----------------------------|
Slow down again
/==========x3========\ /double speed\
e|------------------------------------
B|------------------------------------
G|3--3--3-3----5--5-5----3------5-----
D|3--3--3-3-3--5--5-5----3------5-----
A|1--1--1-1-3--3--3-3----1------3-----
D|----------3-------------------------

/===========================doublespeed again====================\
-----------------------------------------------------------------|
-----------------------------------------------------------------|
----------------7---7--7---5--5--5--3--3--3-3-3-3-----5------5-5-|
-5--5--5----5---7---7--7---5--5--5--3--3--3-3-3-3-----5------5-5-|
-4--4--4----4---5---5--5---3--3--3--1--1--1-1-1-1-----3------3-3-|
-----------------------------------------------------------------|

  /===================x2================\
e|----------------------------------------|
B|----------------------------------------|
G|----------------------------------------|
D|0-----0-----0-----5---0-----6---0----6--|
A|0-----0-----0-----5---0-----6---0----6--|
D|0-00000-00000-00005---0-----6---0----6--|

/======================x2===============\
e|----------------------------------------|
B|----------------------------------------|
G|----------------------------------------|
D|0-----0-----0-----5---0-----6---0----6--|
A|0-----0-----0-----5---0-----6---0----6--|
D|0-00000-00000-00005---0-----6---0----6--|
e|----------------------------------------|
/===================x2========\
B|----------------------------|
G|------------------------9---|
D|2------2--------------8---8-|
A|2------2------------7-------|
D|2--22222-2222-3---8---------|

/======================x2===============\
e|---------------------------------------------------------------------------|
B|---------------------------------------------------------------------------|
G|---------------------------------------------------------------------------|
D|0-----0-----0-----5---0-----6---0----6-------------------------------------|
A|0-----0-----0-----5---0-----6---0----6-------------------------------------|
D|0-00000-00000-00005---0-----6---0----6-------------------------------------|
e|---------------------------------------------------------------------------|


/==========================x2==========================\
e|------------------------------------------------------|
B|------------------------------------------------------|
G|------------------------------------------------------|
D|--------------5--5---5----------------7------5---3--3-|
A|8--8---8------5--5---5---7--7---7-----7------5---3--3-|
D|8--8---8------3-33--33---4-44--44-----5----333---1--1-|
e|8-88--88----------------------------------------------|

then play the verse riff 5 times and then the pre-chorus then Chorus 2


e|------------------------------------------------|-|
B|------------------------------------------------|-|
G|------------------------------------------------|-|
D|----0---------0----------0---------0------------|0|
A|----0-0-1-----0-3-7/-----0-0-1-----0-3-3----3-3-|0|
D|00000-0-1-00000-3-7/-00000-0-1-00000-3-3----3-3-|0|hold that then play that chord 6 times

************************************

| /   slide up
| \   slide down
| h   hammer-on
| p   pull-off
| ~   vibrato
| +   harmonic
| x   Mute note
| b   Bend
| pb  Pre-bend
| br  Bend release
| pbr Pre-bend release
| brb Bend release bend

************************************
Tap to rate this tab
 
# A B C D E F G H I J K L M N O P Q R S T U V W X Y Z