Song name
# A B C D E F G H I J K L M N O P Q R S T U V W X Y Z

Avicii - I Could Be The One tab

I Could Be The One - Avicii (Main Riff)
-------------------------------------------------------------------------------
Tabbed by: EpicGuitarGuy13


Tuning: Standard

This is my first tab published on here, tabbed it by ear, but sounds good
when you play it along with the track. Listen to the song for rhythm and wear
I've said vibrato, I only put that in to make it more interesting to play.
Once I've worked out the rest I'l publish it. Enjoy !

e|--------------------------|--------------------------|---------------------|
B|------15-14-------12------|--------------------------|------15-14-------12-|
G|-14--------14--14~--14-13-|-11--14-13-----11~-----14-|-14--------14--14~---|
D|---16--------16-----------|---11-----14-11---14-16---|---16--------16------|
A|--------------------------|--------------------------|---------------------|
E|--------------------------|--------------------------|---------------------|

e|-------|---------------------------|---------------------------------------|
B|-------|---------------------------|---------------------------------------|
G|-14-13-|-11--14-13-----11~-12------|---------------------------------------|
D|-------|---11-----14-11------14-13-|---------------------------------------|
A|-------|---------------------------|---------------------------------------|
E|-------|-------------------------------------------------------------------|



************************************

| /   slide up
| \   slide down
| h   hammer-on
| p   pull-off
| ~   vibrato
| +   harmonic
| x   Mute note
| b   Bend
| pb  Pre-bend
| br  Bend release
| pbr Pre-bend release
| brb Bend release bend
************************************
Tap to rate this tab
# A B C D E F G H I J K L M N O P Q R S T U V W X Y Z