Guitaretab - guitar tabs
Song name
# A B C D E F G H I J K L M N O P Q R S T U V W X Y Z

Avril Lavigne - Losing Grip tab

artist: Avril Lavigne
number: Losing Grip
tabbed by jurre ( skateboard_rules_1@hotmail.com for questions and corrections about
this tab because I don't know for sure that it's kinda OK...)

First listen to the recording for speed, rythme and timing because this tab is just a
little bit difficulty...

Eb|------0-0-------3-3--|------0-0-------3-3--|
Bb|------0-0-------3-3--|------0-0-------3-3--|
Gb|------9-9-------5-5--|------7-7-------5-5--|
Db|------9-9-------5-5--|------7-7-------5-5--|
Ab|--7---7-7---3---3-3--|--5---5-5---3---3-3--|
Db|--7---7-7---3---3-3--|--5---5-5---3---3-3--|


Verse B (guitar 1) Delay with dirt dist
Eb|---------------3-------------------3--|
Bb|---------------3-------------------3--|
Gb|---------------5---------7---------5--|
Db|--7-------3----5------5--7----3----5--|
Ab|--7-------3-----------5-------3-------|
Db|--7-------3-----------5-------3-------|

================================================================================
CHORUS

Chorus A (guitar2) acoustic
Eb|--0---0---0-0--0-0--0-0-3--0---0-0--0-0--0-0--0-3-0--|
Bb|--0---0---0-0--0-0--0-0-3--0---0-0--0-0--0-0--0-3-0--|
Gb|--9---9---5-5--5-5--5-5-5--5---5-5--5-5--5-5--5-5-7--|
Db|--9---9---5-5--5-5--5-5-5--5---5-5--5-5--5-5--5-5-7--|
Ab|--7---7---3-3--3-3--3-3-3--3---3-3--3-3--3-3--3-3-5--|
Db|--7---7---3-3--3-3--3-3-3--3---3-3--3-3--3-3--3-3-5--|

(continue...)
Eb|--0---0---0-0--0-0--0-0-3-0---0-0--0-0--0--0-0--0-0-0--|
Bb|--0---0---0-0--0-0--0-0-3-0---0-0--0-0--0--0-0--0-0-0--|
Gb|--9---9---5-5--5-5--5-5-5-5---5-5--5-5--7--7-7--7-7-7--|
Db|--9---9---5-5--5-5--5-5-5-5---5-5--5-5--7--7-7--7-7-7--|
Ab|--7---7---3-3--3-3--3-3-3-3---3-3--3-3--0--0-0--0-0-0--|
Db|--7---7---3-3--3-3--3-3-3-3---3-3--3-3--0--0-0--0-0-0--|


Chorus B (guitar1,3) Heavy dist
Eb|-------------------------------------------------|
Bb|-------------------------------------------------|
Gb|-------------------------------------------------|
Db|--9----9---5---5-5---5-5--5---5---5---5-5---5-5--|
Ab|--7----7---2---2-2---2-2--3---3---2---2-2---2-2--|
Db|--7----7---2---2-2---2-2--3---3---2---2-2---2-2--|
("Why!!!... should I...!")

(continue...)
Eb|---------------------------------------------|
Bb|---------------------------------------------|
Gb|---------------------------------------------|
Db|--9----9---5---5-5---5-5--5---5---7---7---7--|
Ab|--7----7---2---2-2---2-2--3---3---0---0---0--|
Db|--7----7---2---2-2---2-2--3---3---0---0---0--|

==================================================================================
BRIDGE:

Bridge A (guitar2) acoustic
Eb|------0--------0----------0--------0--|
Bb|------0--------0----------0--------0--|
Gb|------7--------5----------7--------5--|
Db|------7--------5----------7--------5--|
Ab|--5---5----3---3------5---5----3---3--|
Db|--0--------3----------5--------3------|
[ Tab from: http://www.guitaretab.com/a/avril-lavigne/24453.html ]
(continue...)
Eb|------0--------0----------0--------|
Bb|------0--------0----------0--------|
Gb|------7--------5----------7--------|
Db|------7--------5----------7--------|
Ab|--5---5----3---3------5---5-----3--|
Db|--0--------3----------5---------3--|

Bridge B (guitar2) acoustic
Eb|--0---0-----0--0---0-----0---0-----0--0---0--|
Bb|--0---0-----0--0---0-----0---0-----0--0---0--|
Gb|--7---7-----5--5---5-----7---7-----5--5---5--|
Db|--7---7-----5--5---5-----7---7-----5--5---5--|
Ab|--0---0-----3--3---3-----5---5-----3--3---3--|
Db|--0---0-----3--3---3-----5---5-----3--3---3--|

(continue...)
Eb|--0---0-----0--0---0-----0---0-----0--0---0--|
Bb|--0---0-----0--0---0-----0---0-----0--0---0--|
Gb|--7---7-----5--5---5-----5---5-----5--5---5--|
Db|--7---7-----5--5---5-----5---5-----5--5---5--|
Ab|--0---0-----3--3---3-----3---3-----3--3---3--|
Db|--0---0-----3--3---3-----3---3-----3--3---3--|

Bridge C (guitar1, 3) Heavy dist
Eb|--X-X--|----------------------------------------------|
Bb|--X-X--|----------------------------------------------|
Gb|--X-X--|----------------------------------------------|
Db|--X-X--|--7---7---7--5-5---5-5--5---5--5---5-5---5-5--|
Ab|--x-X--|--0---0---0--3-3---3-3--5---5--3---3-3---3-3--|
Db|--X-X--|--0---0---0--3-3---3-3--5---5--3---3-3---3-3--|
("Open your eyes!...")

(continue...)
Eb|--------------------------------------------------|
Bb|--------------------------------------------------|
Gb|--------------------------------------------------|
Db|--7---7---7--5-5---5-5---5-5---5---5---5-5---5-5--|
Ab|--0---0---0--3-3---3-3---3-3---3---3---3-3---3-3--|
Db|--0---0---0--3-3---3-3---3-3---3---3---3-3---3-3--|

==================================================================================
INTERLUDE:

Interlude A (guitar2) acoustic
Eb|--0-----3-3--3-3----3-3-3-3------3-3--3-3--3-3--|
Bb|--0-----3-3--3-3----3-3-3-3------3-3--3-3--3-3--|
Gb|--9-----5-5--5-5----5-5-5-5------5-5--5-5--5-5--|
Db|--9-----5-5--5-5----5-5-5-5------5-5--5-5--5-5--|
Ab|--7-----3-3--3-3----3-3-3-3------3-3--3-3--3-3--|
Db|--7---------------------------------------------|
(why... should I care...)

(continue...)
Eb|--------3-3--3-3---3---3------|
Bb|--------3-3--3-3---3---3------|
Gb|--------5-5--5-5---5---5------|
Db|--------5-5--5-5---5---5------|
Ab|--0-----3-3--3-3---3---3------|
Db|------------------------------|

==================================================================================
END:

End A (guitar3)
Eb|------|----------|
Bb|------|----------|
Gb|------|----------|
Db|--9---|--(9)~~~--|
Ab|--7---|----------|
Db|--7---|----------|


End B (guitar2)
Eb|-------0--|
Bb|------0---|
Gb|-----9----|
Db|----9-----|
Ab|---7------|
Db|--7-------|

===================================================================================
Order:

1- Intro: A, B 
2- Verse: A, B
3- Chorus: A, B
4- Verse: A, B
5- Pre-chorus: B
6- Chorus: A, B
6- Bridge: A
7- Bridge: B, C
8- Interl: A
9- Pre-chorus: C
10-Chorus: A, B
11-End: A, B
Related for Losing Grip tab
Losing Grip chords by Avril Lavigne