Song name
# A B C D E F G H I J K L M N O P Q R S T U V W X Y Z

Awaken - The Silence Is Deafening tab

Hey Guys No one has tabbed this amazing song I'm quite suprised so I gave it a go and 
is what i came up with Enjoy =]

Tuning: C-G-C-F-A-D


|----------------------------------------|
|-----------------------------5-3--------|
|-------------------------------3-2------|
|-----------------------5-7-3------3-2---|
|-----5--7-8-10-8-7h8p7------------------|
|--000-00-0-0--0-0-----0-0---0-----------|
   *** ** * *  * *     * *   *


|----------------------------------------|
|----------------------------------------|
|-----------------------------3-2--------|
|-----------------------5-7-3---3-2------|
|-----5--7-8-10-8-7h8p7------------2-s5--|
|--000-00-0-0--0-0-----0-0---0-----------|
   *** ** * *  * *     * *   *

|----------------------------------------|
|-----------------------------5-3--------|
|-------------------------------3-2------|
|-----------------------5-7-3------3-2---|
|-----5--7-8-10-8-7h8p7------------------|
|--000-00-0-0--0-0-----0-0---0-----------|
   *** ** * *  * *     * *   *

|----------------------------------------|
|----------------------------------------|
|-----------------------------3-2--------|
|-----------------------5-7-3---3-2------|
|-----5--7-8-10-8-7h8p7------------2-s5--|
|--000-00-0-0--0-0-----0-0---0-----------|


|----------------------------------
|
|--7
|--x
|--5
|
Tap to rate this tab
 
# A B C D E F G H I J K L M N O P Q R S T U V W X Y Z