Song name
# A B C D E F G H I J K L M N O P Q R S T U V W X Y Z

Awolnation - Sail tab

"AWOLNATION is an American indie rock band, and is the solo project of Aaron Bruno,
formerly of Under the Influence of Giants and Hometown Hero. The band is signed to Red Bull
Records[1], and their first EP, Back from Earth, was released on iTunes on May 18, 
2010[2]." - Wikipedia

http://www.redbullrecords.com/index.php/artists/detail/artist_-_awolnation/

I've been playing this song for a while, absolutely addicted to it and it's not that
difficult to play.

Everything but the short solo / piano interlude:

  E5
e---------------------------------|
B---------------------------------|
G-9-------------------------------|
D-9------------------7--9--7------|
A-7---7-7-7-10-10-10---------10-7-|
E---------------------------------| x2

  D5
e-----------------------------|
B-----------------------------|
G-7---------------------------|
D-7---------------------5-----|
A-5---5-5-5-7-7-7----7----7-5-|
E-----------------7-----------|

  G5                 D5
e------------------------------------|
B------------------------9-9-9-12----|
G--------------------7---------------|
D-5---9-9-9-12-12-12-7---------------|
A-5------------------5---------------|
E-3----------------------------------|

Just listen to the song for timing, it's pretty simple.

That's pretty much the whole song, just repeat it or mix it up and play the chorus with
just chords. Sounds great if one person plays the chords and the other plays this.

Questions, Comments, Feedback?
b.darcyflynn@gmail.com
Tap to rate this tab
 
# A B C D E F G H I J K L M N O P Q R S T U V W X Y Z