Song name
# A B C D E F G H I J K L M N O P Q R S T U V W X Y Z

Axxis - My Fathers Eyes tab

AXXIS - My Fathers' Eyes

By MartyTox

*It is only by ear, so do not be surprised if there are errors. =)

Intro:

--------------------------------------------------------------------|
-----8-7-8-------8-7---------8-7---------8-7-7/10---9-8-7-----------|
-7-7---------7-7-----7---7-7-----7---7-7------------------7-8/9-----|
--------------------------------------------------------------------|
--------------------------------------------------------------------|
--------------------------------------------------------------------|



Main:


---------------------------------------|
---------------------------------------|
---------------------------------------|
--9---------5----------5----------7----|  2 times
--7---------3----------5----------5----|
---------------------------------------|

after:

-------------------------------|
-------------------------------|
-------------------------------|
-9--5--3--5--7-----2-2-2-2-2-2-|
-7--3--3--3--5-----2-2-2-2-2-2-|
-------------------0-0-0-0-0-0-|

Main2:

First guitar


---------------------------------------|
---------------------------------------|
---------------------------------------|
--9---------5----------5----------7----|  2 times
--7---------3----------5----------5----|
---------------------------------------|


Second guitar:

--------------------------------------------------|
-----8-7-8-------8-7---------8-7---------8-7-7/10-|
-7-7---------7-7-----7---7-7-----7---7-7----------|
--------------------------------------------------|  2 times
--------------------------------------------------|
--------------------------------------------------|


After all again.
Tap to rate this tab
 
# A B C D E F G H I J K L M N O P Q R S T U V W X Y Z