Guitaretab - guitar tabs
Song name
# A B C D E F G H I J K L M N O P Q R S T U V W X Y Z

Aynsley Lister - As The Crow Flies tab

As the Crow Flies- Aynsley Listerís Version

Chords Used


|--0-------0------------------0-----------2----------------------------
|--0-------0---------0--------3-----------3----------------------------
|--1-------2---------2--------2-----------2----------------------------
|--2-------2---------2--------0-----------4----------------------------
|--2-------2---------0--------------------2----------------------------
|--0-------0-----------------------------------------------------------
  (E)   (Esus2)   (Asus2)   (Dsus2)   (Bm7 sus2?)


Focus on changing the base notes from Dsus2 to Asus2 to the E, this is where
aynsley really emphasizes the chord changes in the song! For example:

|--0-------------0----
|--3------0------0----
|--2------2------1----
|-(0)-----2------2----
|--------(0)-----2----
|---------------(0)---

Well here goes!!!

Intro

|------------------------------------0-0--0--0-0--0--0-----0-----------
|----0--0-0--0-0--0--(REPEAT 2*)-----2-2/-3--3-3\-2--2-2brp0-----------
|--1-2/-4-2/-4-2/-4----------------4----------------------------1h2p1--
|-------------------------------------------0------------------------2
|---------------------------------------------------0------------------
|-0--------------------------------------------------------------------



|---------------------------------------0-----------0------------------
|-----0--0-2brp0------------------------3--x--0--x--0------------------
|---1-2/-4--------1h2p1h2ó2/-4\-2\-1----2--x--2--x--1------------------
|-------------------------------------0----x--2--x--2------------------
|------------------------------------------x--0--x--2------------------
|-0-------------------------------------------------0------------------

Verse

As the crow flies baby, well I ainít so far from you
(E)                           (Dsus2)  (Asus2)     (E)

As the crow flies baby, well I ainít so far from you
      (Dsus2)                 (Dsus2)  (Asus2)     (E)

But since I donít have wings, I canít get home as fast as I want to
  (Bm7sus2?)                          (Dsus2)    (Asus2)     (E)(Esus2)        


This is where Aynsley speeds up the tempo and lets rip and rocks out! Here
Aynsley plays a hammer on part with the E and the Esus2 to get a rockier sound
and this continues throughout! The chord are exactly the same but are just sped
up. In between chord changes play open strings very quickly.

Rest Of Lyrics
[ Tab from: http://www.guitaretab.com/a/aynsley-lister/130155.html ]
In a dream last night, where I heard you call my name

In a dream last night, where I heard you call my name

Well I took it as an omen and jumped on the very first freight train


Well you donít know baby how I miss your sweet caress

Well you donít know baby how I miss your sweet caress

When Iím in your loving arms baby

You know thatís how Iím at my very best

Lead Break (same-ish as intro)


|----0-0--0--0-0--0--0-----0-----0------0------------------------------
|----2-2/-3--3-3\-2--2-2brp0-----3--0---0------------------------------
|-4------------------------------2--2---1------------------------------
|------------------------------0----2---2------------------------------
|---------------------------------0-----2------------------------------
|-0-----------------------------------0--------------------------------

Solo

|-----7-------7-----7------7-------------0-----------------------------
|---7b-----7b----7b----7b-----7br--5-----3----0---0--------------------
|----------------------------------------2----2---1--------------------
|--------------------------------------0------2---2--------------------
|-------------------------------------------0-----2--------------------
|-0-----0------0-----0-----0--------------------0----------------------


|-----7-------7-----7-----7--------------0ó---0-------------5--5-5-----
|---7b-----7b----7b----7b-----7br--5-----3----0---0--------3---3ó3-----
|----------------------------------------2----2---1-------2----2ó2-----
|--------------------------------------0------2---2------4-----4ó4-----
|-------------------------------------------0-----2-----2------2ó2-----
|-0-----0------0-----0-----0----------------------0--------------------


|----0---------0-------------------------------------------------------
|----3----0----0-------------------------------------------------------
|----2----2----1-------------------------------------------------------
|--0------2----2-------------------------------------------------------
|-------0------2-------------------------------------------------------
|------------0---------------------------------------------------------


Thatís basically it. Just repeat chord sequence over and over with lyrics.
Hope everybody likes it!

This is for Tony who has thankfully tabbed some Aynsley songs and has been
really helpful to me in learning how to play his songs! Nice one Tony!

This was created by Paul Golding (paul_golding1981@yahoo.co.uk)


ENJOY!!!!!
Related for As The Crow Flies tab