Song name
# A B C D E F G H I J K L M N O P Q R S T U V W X Y Z

B Fachada - Monogamia tab

"Monogamia" by portuguese artist B Fachada.
Capo according to your own voice, he uses in the third.
Everything here is my own take on this song. Enjoy.

VERSE
|---0---0---0---0-------|
|---1---1---0---0-------|
|---0---0---0---0-------|
|---2---2---0---0-------|
|---3---0---2---2-------|
|---3-------3---3-1-0---|

CHORUS
|---0---0---|---0---0---0---0-----0---0---0---0---|
|---1---1---|---1---0---1---0-----0---1---1---1---|
|---0---0---|---0---0---2---0-----0---0---2---0---|
|---2---2---|---2---0---3---0-----0---2---3---2---|
|---3---3---|---0---2---3---2-----2---0---3---3---|
|---3---3---|-------0-------3-----0-----------3---|

Video here: http://www.youtube.com/watch?v=DcbczZBl-w4&feature=related

B Fachada official website: http://www.myspace.com/bfachada
Tap to rate this tab
 
# A B C D E F G H I J K L M N O P Q R S T U V W X Y Z