Song name
# A B C D E F G H I J K L M N O P Q R S T U V W X Y Z

B52 - Rock Lobster tab

I've seen alot of tabs for this song and they all sound wrong. So this is how I play it 
I think it pretty much right.

e|-----3-----3------------111---------------------|
B|-----4-----4------------000---------------------|
G|-----5-----5---1-0-1-0--000---------------------|
D|-----5-----5------------000---------------------|
A|--3-----8---------------222---------------------|
E|------------------------333----------repeat 8x--|


e|------------------------------------------------|
B|-8--7--8--7--4--7--4--8-------------------------|
G|------------------------------------------------|
D|-5--4--5--4--1--4-----5-------------------------|
A|-------------------6----------------------------|
E|-------------------------------------Repeat 4x--|

let me know what you think
Tap to rate this tab
# A B C D E F G H I J K L M N O P Q R S T U V W X Y Z