Baby Animals - One Word tab

Baby Animals - One Word

    Intro
eb|-----------------------------------3-------------5------------|
Bb|------------10---13---10---8-----3-----3-------5-----5--------|
Gb|----------9------12---9----9---5---------5---7---------7------|
Db|--------7----------------------------5-------------7----------|
Ab|------0--------0----0----0---0-------------0------------------|
Eb|--------------------------------------------------------------|

eb|--------------3-------------------5------------5--------------|
Bb|------------5-----3---5---5-----8----8-------8-----8----------|
Gb|----------5-------5---5---5---7--------7---7---------7--------|
Db|--------3-------3---3---3---5-------5------------5------------|
Ab|-----------------------------------------7--------------------|
Eb|--------------------------------------------------------------| x2

eb|---------7---------------7-------------3-------------5--------|
Bb|------10-----10-------10----10-------3-----3-------5-----5----|
Gb|----9-----------9---9----------9---5---------5---7---------7--|
Db|--7--------7------7-------7--------------5-------------7------|
Ab|---------------------------------0-------------0--------------|
Eb|--------------------------------------------------------------| x4


It's such a great intro, wanted to learn it but the only half decent
tab was in standard and capoed and probably right, but I watched a vid on
youtube and Dave Leslie wasn't using a capo... So this is what I came up
with, pretty sure it's spot on. The rest of the song is relatively self
explanatory.

Cheers
Tap to rate this tab
 
# A B C D E F G H I J K L M N O P Q R S T U V W X Y Z