Song name
# A B C D E F G H I J K L M N O P Q R S T U V W X Y Z

Baby Bash - Obsession tab

Tabbed by: fenderown
Email: magma_981@hotmail.com

This is by ear, but I'm sure it's close at 99.9%

Tuning:EADGBE

e|-----------4---------------3-----------------------------------------------|
B|----------4----------------4---------------4-------------------4-----------|
G|-----------------------5-------------------5----------------5--5-----------|
D|-------6-------------5------------------6-----------------5----------------|
A|-----6------------3-------------------6----------------3-------------------|
E|--4--------------------------------4---------------------------------------|

e|--------------------------------------------------------------------------|
B|--3h4p--------------------------------------------------------------------|
G|-------3h5p---------------------------------------------------------------|
D|--------------------------------------------------------------------------|
A|--------------------------------------------------------------------------|
E|--------------------------------------------------------------------------|

Ask if you want me to do all the song, cause just that !%/$! intro took me 2 hours.


| /  slide up
| \  slide down
| h  hammer-on
| p  pull-off
| ~  vibrato
| +  harmonic
| x  Mute note
===============================================================================
Tap to rate this tab
# A B C D E F G H I J K L M N O P Q R S T U V W X Y Z