Song name
# A B C D E F G H I J K L M N O P Q R S T U V W X Y Z

Babyshambles - There She Goes tab

--12-------/10------7---3---2---0---------|
-----12/-------10-------------------------|
------------------------------------------|
------------------------------------------|
------------------------------------------|
------------------------------------------|


---12-----10h12--10--8--7------|
------12-----------------------|
-------------------------------|
-------------------------------|
-------------------------------|
-------------------------------|
Tap to rate this tab
# A B C D E F G H I J K L M N O P Q R S T U V W X Y Z