Song name
# A B C D E F G H I J K L M N O P Q R S T U V W X Y Z

Babyshambles - Fireman tab

-------------------------------------------------------------------------------
                             FIREMAN - BABYSHAMBLES
-------------------------------------------------------------------------------
Tabbed by: lfgtimmer

Tuning:standard


Chords used
   D  A  Bm G  E G#5 A5 B5
e|-x--5--7--5--x--------------------------------|
B|-7--5--7--5--9--------------------------------|
G|-7--6--7--4--9--------------------------------|
D|-7--7--9--5--9--6--7--9-----------------------|
A|-5--7--9--5--7--6--7--9-----------------------|
E|-x--5--7--3--x--4--5--7-----------------------|

Intro:

    D            C       D     C D
e|-----------------------------------------------|
B|-----------------------------------------------|
G|--11-11-11-11--8-8-8-8-11-11-8-11--------------| play 4x
D|--12-12-12-12--9-9-9-9-12-12-9-12--------------|
A|-----------------------------------------------|
E|-----------------------------------------------|

Verse:
I really don’t understand shit of what he’s saying, but anyway these are the chords
D A Bm Bm x3 G A

Intro:
Play twice

Verse:
D A Bm Bm x3 G A

Chorus:
E                G#5 A5 B5 x4
I am the fireman…

Intro:
Play twice

Verse:
D A Bm Bm x3 G A

Chorus:
Play chorus until the end of the song, end the song with a few down strokes on E.
Tap to rate this tab
 
# A B C D E F G H I J K L M N O P Q R S T U V W X Y Z