Song name
# A B C D E F G H I J K L M N O P Q R S T U V W X Y Z

Back Door Slam - Come Home tab

Tabbed by James Stewart

Play around with some of the fills. Theres alot of variations that I'm not going to
out, but you can get away with these fills only. This isnt exact, but its close. 
Email nowjamessays@yahoo.com
----------------------------------|
----------------------------------|
----------------------3-2-3p2p0---|
----------------------2-1-------2-|
-----5h7---7p5h7--0h3-3-2---------|
-0-0-----0------------------------|

-------------------------------|
-------------------------------|
----------------------3-2------|
----------------------2-1------|
-----5h7---7p5h7--0h3-3-2------|
-0-0-----0----------------3b---|


Verse - Em C7 B7


Put your trust in me
------------------------------|
--------------------8-x-9-9-9-|
-------5h7p5--------9-x-9-9-9-|
-7-7-x-------7------9-x-9-9-9-|
-7-7-x--------------7-x-7-7-7-|
-5-5-x-----------x2-----------|


Yeah baby put your trust in me
------------------------------------------|
------------------------------------------|
-------5h7p5--------8-8-8-8--11-11-11-11--|
-7-7-x-------7------9-9-9-9--12-12-12-12--|
-7-7-x--------------9-9-9-9--12-12-12-12--|
-5-5-x-----------x2-7-7-7-7--10-10-10-10--|


And come home, Yeah baby come home
Em C7 B7
Tap to rate this tab
# A B C D E F G H I J K L M N O P Q R S T U V W X Y Z