Song name
# A B C D E F G H I J K L M N O P Q R S T U V W X Y Z

Backstreet Boys - The One tab

-------------------------------------------------------------------------------
			     THE ONE - Backstreet Boys
-------------------------------------------------------------------------------
Tabbed by: metallhead
Email: homesticky@gmail.com

Tuning: E A D G B E


Gtr I (E A D G B E) - 'Voice'
Gtr II (E A D G B E) - 'Guitar'
Gtr III (E A D G B E) - 'Guitar'
Gtr IV (E A D G B E) - 'Keyboard'

  Q=110
 4/4
  Gtr I
  W          W               H    E. S +S  S  E   H.       Q
|----------|---------------|------6--8-(8)---10-|-8------------|
|----------|---------------|--------------------|--------------|
|----------|---------------|--------------------|--------------|
|----------|---------------|--------------------|--------------|
|----------|---------------|--------------------|--------------|
|----------|---------------|--------------------|--------------|
|
| Gtr II
| W          H    Q  E S S   H    H               H     H
|----------|-----------6-6-|-6------------------|--------------|
|----------|-----------6-6-|-6------------------|--------------|
|----------|-----------7-7-|-7------------------|-5------------|
|----------|-----------8-8-|-8------------------|-7------------|
|----------|-------------8-|-8------------------|-8------------|
|----------|---------------|--------------------|-8------------|
|
| Gtr III
| W          W               H    E. S +E     E   H     H
|----------|---------------|--------------------|--------------|
|----------|---------------|--------------------|--------------|
|----------|---------------|--------------------|--------------|
|----------|---------------|--------------------|--------------|
|----------|---------------|------1--3-(3)----5-|-3------------|
|----------|---------------|--------------------|-------1------|


   W            W           W                  H           E S S E S S
|-------------|-----------|------------------|-----------------6-8-6---|
|-------------|-----------|------------------|-------------------------|
|-------------|-----------|------------------|-------------------------|
|-------------|-----------|------------------|-------------------------|
|-------------|-----------|------------------|-------------------------|
|-------------|-----------|------------------|-------------------------|
|
|  H     H      H    H      S E S E S S H      S E S E S S H
|-------------|-----------|------------------|-------------------------|
|--3----------|------1----|------------------|-------------------------|
|--3----------|-3----2----|------------------|-------------------------|
|--5----------|-5----3----|-5---5---5--------|-5---5---5---------------|
|--5----------|-6----3----|-5---5---5--------|-3---3---3---------------|
|-------------|-6---------|-3---3---3--------|-3---3---3---------------|
|
| +H     H      W           S E S E S S H      S E S E S S H
|-------------|-----------|------------------|-------------------------|
|-------------|-----------|------------------|-------------------------|
|-------------|-----------|-3---3---3--------|-2---2---2---------------|
|-------------|-----------|-5---5---5--------|-3---3---3---------------|
|-------------|-----------|-5---5---5--------|-5---5---5---------------|
|-(1)---------|-----------|------------------|-------------------------|


  W                  Q       E   S S E   S  S  +S  S S S
|------------------|-----------------8-----10-(10)---8----|
|------------------|-------------6------------------------|
|------------------|--------------------------------------|
|------------------|--------------------------------------|
|------------------|--------------------------------------|
|------------------|--------------------------------------|
|
| S E S E S S H      E   S S S S S S S S S  S   S  S S S
|------------------|--------------------------------------|
|------------------|--------------------------------------|
|------------------|--------------------------------------|
|-5---5---5--------|-----5-5-5---5-5---5-5--5---5----5----|
|-5---5---5--------|-----5-5-5---5-5---5-5--5---5----5----|
|-3---3---3--------|-----3-3-3---3-3---3-3--3---3----3----|
|
| S E S E S S H      S E   S E   S S H
|------------------|--------------------------------------|
|------------------|--------------------------------------|
|-3---3---3--------|-2-----2-----2------------------------|
|-5---5---5--------|-3-----3-----3------------------------|
|-5---5---5--------|-5-----5-----5------------------------|
|------------------|--------------------------------------|


  H             +Q      S S E   +E     E    +Q     +Q.         E
|-6-------------(6)-----6---8-|-(8)---10---(10)---(10)--------------|
|-----------------------------|-------------------------------------|
|-----------------------------|-------------------------------------|
|-----------------------------|-------------------------------------|
|-----------------------------|-------------------------------------|
|-----------------------------|-------------------------------------|
|
| S S E S S S S  E  S S S S E    S  E    S   E  E   E  S S S S S S
|-----------------------------|-------------------------------------|
|-3---------3-------3---3-----|--3-------3------3----------3---3----|
|-0---------3-------3---3-----|--3-------3------3----------3---3----|
|-0-----5---5-------5---5-----|--3-------3------3------3---3---3----|
|-------5---5-------5---5-----|--5-------5------5------5---5--------|
|-----------------------------|-------------------------------------|
|
| Gtr IV
| W                              W
|-----------------------------|-------------------------------------|
|-3---------------------------|-------------------------------------|
|-3---------------------------|--2----------------------------------|
|-5---------------------------|--3----------------------------------|
|-----------------------------|-------------------------------------|
|-----------------------------|-------------------------------------|


   E   S S +S  S S S Q     Q         +Q      +S  S S S E S S +Q
|-10-----8-(8)---6---6-----8-------|-(8)-----(8)---8---8---8-(8)-------|
|----------------------------------|-----------------------------------|
|----------------------------------|-----------------------------------|
|----------------------------------|-----------------------------------|
|----------------------------------|-----------------------------------|
|----------------------------------|-----------------------------------|
|
|  S E   S  E    S S E S S S S S S    S  E S  E    S S E S S  S  S S S
|----------------------------------|-----------------------------------|
|--3-----3-------3-----3---3---3---|--3----3-------3-----3----3----3---|
|--3-----3-------3-----3---3---0---|--2----2-------2-----2----2----2---|
|--5-----5-------5-----5---5---0---|--0----0-------0-----0----0----0---|
|--5-----5-------5-----5---5-------|-----------------------------------|
|----------------------------------|-----------------------------------|
|
|  W                                  W
|----------------------------------|-----------------------------------|
|----------------------------------|-----------------------------------|
|--3-------------------------------|--2--------------------------------|
|--5-------------------------------|--3--------------------------------|
|----------------------------------|-----------------------------------|
|----------------------------------|-----------------------------------|


  H           +Q       S S  E      +S  S E   +Q      +Q      +S  S S S
|-6-----------(6)-----10---10---|-(10)---8---(8)-----(8)-----(8)---6---|
|-------------------------------|--------------------------------------|
|-------------------------------|--------------------------------------|
|-------------------------------|--------------------------------------|
|-------------------------------|--------------------------------------|
|-------------------------------|--------------------------------------|
|
| S E S E S S  E  S S  S S  S S     S  E   S  E  S S  E  S S  S  S S S
|-------------------------------|--------------------------------------|
|-3---3---3-------3----3--------|--------------------------------------|
|-3---3---3-------3----3--------|---7------7-----7-------7----7----7---|
|-5---5---5-------5----5----5---|---7------7-----7-------7----7----7---|
|-5---5---5-------5----5----5---|---5------5-----5-------5----5----5---|
|-------------------------------|--------------------------------------|
|
| W                                 W
|-------------------------------|--------------------------------------|
|-------------------------------|--------------------------------------|
|-3-----------------------------|---2----------------------------------|
|-5-----------------------------|---3----------------------------------|
|-------------------------------|--------------------------------------|
|-------------------------------|--------------------------------------|


   E   S S E S S E S S +E     S S   H           H
|-10-----8---6---6---8-(8)---10---|-8------------------------|
|---------------------------------|--------------------------|
|---------------------------------|--------------------------|
|---------------------------------|--------------------------|
|---------------------------------|--------------------------|
|---------------------------------|--------------------------|
|
|  S E   S E E   E S S  S  S  S S   S E S E S S S E S E S S
|---------------------------------|-------------1---1---1----|
|--3-----3---3-----3----3-----3---|-4---4---4---1---1---1----|
|--3-----3---3-----3----3-----3---|-3---3---3---2---2---2----|
|--5-----5---5-----5----5-----5---|-5---5---5---3---3---3----|
|--5-----5---5-----5----5-----5---|-6---6--------------------|
|---------------------------------|--------------------------|
|
|  W                                H           H
|---------------------------------|-------------1------------|
|--3------------------------------|-4-----------1------------|
|--3------------------------------|-------------2------------|
|--5------------------------------|-1-----------3------------|
|---------------------------------|--------------------------|
|---------------------------------|--------------------------|


   E   S  S E  E    +Q         +S  S E
|-13-----13---13---(13)-------(13)-------|
|----------------------------------------|
|----------------------------------------|
|----------------------------------------|
|----------------------------------------|
|----------------------------------------|
|
|  S E    S E  S S   S  S S S   S  S S S
|----------------------------------------|
|--2------2----2--------2-2-----2----2---|
|--1------1----1--------1-1-----1----1---|
|--3------3----3--------3-3-----3----3---|
|----------------------------------------|
|----------------------------------------|
|
|  H                +H
|--1----------------(1)------------------|
|--2----------------(2)------------------|
|--1----------------(1)------------------|
|----------------------------------------|
|--4----------------(4)------------------|
|----------------------------------------|


   E   S  S E  E    +Q         +S  S E
|-13-----13---13---(13)-------(13)--------|
|-----------------------------------------|
|-----------------------------------------|
|-----------------------------------------|
|-----------------------------------------|
|-----------------------------------------|
|
|  S E    S E  S S   S  S S S   S  S S S
|-----------------------------------------|
|--2------2----2--------2-2-2---2----2----|
|--3------3----3--------3-3-3---3----3----|
|--3------3----3--------3-3-3---3----3----|
|-----------------------------------------|
|-----------------------------------------|
|
|  W
|-----------------------------------------|
|-----------------------------------------|
|--3--------------------------------------|
|--3--------------------------------------|
|-----------------------------------------|
|-----------------------------------------|


   E S  S E  E    +E     E    E    E
|-13---13---13---(13)---14---13---11---|
|--------------------------------------|
|--------------------------------------|
|--------------------------------------|
|--------------------------------------|
|--------------------------------------|
|
|  E S  S E  S S   S  S  S S  S S  S S
|--------------------------------------|
|--------------------------------------|
|--3----3----3--------3--3----3----3---|
|--4----4----4--------4--4----4----4---|
|--4----4----4--------4--4----4----4---|
|--------------------------------------|
|
|  H              +H
|--1--------------(1)------------------|
|--2--------------(2)------------------|
|--3--------------(3)------------------|
|--4--------------(4)------------------|
|--------------------------------------|
|--------------------------------------|


   +S  S  E    +S  S  E    +E  E   Q
|-(11)---11---(11)---11---(11)-------------|
|------------------------------------------|
|------------------------------------------|
|------------------------------------------|
|------------------------------------------|
|------------------------------------------|
|
|   S  E    S   E     S S   E  S S S S S S
|------------------------------------------|
|---1-------1---------1--------1---1---4---|
|---1-------1---------1--------1---3---5---|
|---1-------1---------1--------1---1-------|
|------------------------------------------|
|------------------------------------------|
|
|   W
|------------------------------------------|
|---4--------------------------------------|
|---5--------------------------------------|
|---6--------------------------------------|
|---6--------------------------------------|
|------------------------------------------|


   E   E    S S  E    +Q.             S S
|-13-------13---13---(13)-----------------|
|------------------------------------14---|
|-----------------------------------------|
|-----------------------------------------|
|-----------------------------------------|
|-----------------------------------------|
|
|  S E   S  E    S S   S  S S S  S S  S S
|-----------------------------------------|
|-----------------------------------------|
|--6-----6-------6--------6-6----6----6-6-|
|--6-----6-------6--------6-6----6----6-6-|
|--8-----8-------8--------8-8----8----8-8-|
|-----------------------------------------|
|
| Gtr III
|  S S S S  S S  S S   S  S S S  S S  S S
|----4-9---------9----------9---------9---|
|--2-----9----9----9------9---9----9----9-|
|-----------------------------------------|
|----------11---------11--------11--------|
|-----------------------------------------|
|-----------------------------------------|


   E    S S  E    E    +Q         E    E
|-13---13--------13---(13)------------------|
|--------------------------------14---16----|
|-------------------------------------------|
|-------------------------------------------|
|-------------------------------------------|
|-------------------------------------------|
|
|  S E    S  E    S S   S  S S S  S S  S  S
|-------------------------------------------|
|-------------------------------------------|
|--6------6-------6--------6-6----6----6----|
|--8------8-------8--------8-8----8----8----|
|--8------8-------8--------8-8----8----8----|
|-------------------------------------------|
|
|  S S  S S  S S  S S   S  S S S  S S  S  S
|-------9---------9----------9---------9----|
|----9----9----9----9------9---9----9-------|
|-------------------------------------------|
|-11--------11---------11--------11------11-|
|-------------------------------------------|
|-------------------------------------------|


   E   S  S  +S  S  E    +S  S  E    E    E
|---------------------------------------------|
|-18-----18-(18)---18---(18)---19---18---16---|
|---------------------------------------------|
|---------------------------------------------|
|---------------------------------------------|
|---------------------------------------------|
|
|  S E    S   E     S S   S  S  S S  S S  S S
|---------------------------------------------|
|---------------------------------------------|
|---------------------------------------------|
|--6------6---------6--------6--6----6----6---|
|--9------9---------9--------9--9----9----9---|
|---------------------------------------------|
|
|  S S S  S   S  S  S S   S  S  S S  S S  S S
|------9------------9-----------9---------9---|
|----9----9------9----9------9----9----9------|
|---------------------------------------------|
|-11---------11----------11---------11--------|
|---------------------------------------------|
|---------------------------------------------|


   +Q   Q    E  S  S  +E   E    Q.       E   H
|----------------------------|----------------------------------|
|-(16)------------15-(15)-13-|-11-------------------------------|
|-----------17---------------|----------------------------------|
|----------------------------|----------------------------------|
|----------------------------|----------------------------------|
|----------------------------|----------------------------------|
|
|   H       +Q.            E    S  E S E S S E  S S  S  S  S S
|----------------------------|----------------------------------|
|----------------------------|--6----6---6------6----6----------|
|---5-------(5)--------------|--7----7---7------7----7----10----|
|---6-------(6)--------------|--8----8---8------8----8-----8----|
|---6-------(6)--------------|--8----8---8------8----8-----8----|
|----------------------------|----------------------------------|
|
|   H       +H                  H            E.   S +E     E
|----------------------------|----------------------------------|
|----------------------------|----------------------------------|
|----------------------------|----------------------------------|
|--13------(13)--------------|----------------------------------|
|--11------(11)--------------|---------------1----3-(3)----5----|
|----------------------------|----------------------------------|


   H             Q       E    E      E   S  S E  E    +Q        E    E
|-----------------------10---11---|-13-----13---13---(13)----------------|
|---------------------------------|----------------------------15---16---|
|---------------------------------|--------------------------------------|
|---------------------------------|--------------------------------------|
|---------------------------------|--------------------------------------|
|---------------------------------|--------------------------------------|
|
|  S E  S E  S S E  S S  S S  S S    S E    S E  S S   E   S S  S S  S S
|---------------------------------|--------------------------------------|
|---------------------------------|--------------------------------------|
|-10---10---10-----10---10---10---|-10-----10---10--------10---10---10---|
|-10---10---10-----10---10---10---|--8------8----8---------8----8----8---|
|-12---12---12-----12---12---12---|-10-----10---10--------10---10---10---|
|---------------------------------|--------------------------------------|
|
|  H             H                   W
|---------------------------------|--------------------------------------|
|---------------------------------|--------------------------------------|
|---------------------------------|--------------------------------------|
|---------------------------------|--3-----------------------------------|
|--3------------------------------|--------------------------------------|
|----------------1----------------|--------------------------------------|


   E    S  S  +S  S  S S  E   S  S  +S  S  E      H           H
|----------------------------------------------|-------------------------------|
|-18------18-(18)---18----------15-(15)---13---|-11----------------------------|
|------------------------17--------------------|-------------------------------|
|----------------------------------------------|-------------------------------|
|----------------------------------------------|-------------------------------|
|----------------------------------------------|-------------------------------|
|
|  S  E    S   E     S S  S E    S   E     S S    S E S E S S E  S S  S  S S S
|----------------------------------------------|-------------------------------|
|--6-------6---------6----6------6---------6---|--6---6---6------6----6----6---|
|--8-------8---------8----5------5---------5---|--7---7---7------7----7----7---|
|--8-------8---------8----7------7---------7---|--8---8---8------8----8----8---|
|-10------10--------10-------------------------|--8---8---8------8----8----8---|
|----------------------------------------------|-------------------------------|
|
| +Q           Q          H                       H           E.   S +E    E
|----------------------------------------------|-------------------------------|
|----------------------------------------------|-------------------------------|
|----------------------------------------------|-------------------------------|
|-(3)------------------------------------------|-------------------------------|
|----------------------------------------------|--------------1----3-(3)---5---|
|----------------------------------------------|-------------------------------|


  H           Q      E    E      E    S  S E  E    +Q       S S  E
|-------------------10---11---|-13------13---13---(13)---------------|
|-----------------------------|----------------------------15---16---|
|-----------------------------|--------------------------------------|
|-----------------------------|--------------------------------------|
|-----------------------------|--------------------------------------|
|-----------------------------|--------------------------------------|
|
| S E S E S S E S S  S S  S S    S  E    S E  S S   E  S S  S S  S S
|-----------------------------|--------------------------------------|
|-6---6---6-----6----6----6---|--6-------6----6--------6----6----6---|
|-5---5---5-----5----5----5---|--0-------0----0--------0----0----0---|
|-7---7---7-----7----7----7---|--8-------8----8--------8----8----8---|
|-----------------------------|--------------------------------------|
|-----------------------------|--------------------------------------|
|
| H           H                 +W
|-----------------------------|--------------------------------------|
|-----------------------------|--------------------------------------|
|-----------------------------|--------------------------------------|
|-----------------------------|--------------------------------------|
|-3---------------------------|--------------------------------------|
|-------------1---------------|-(1)----------------------------------|


   E    S  S E  S S  E   S  S  +S  S  E
|-----------------------------------------|
|-18------18---18----------15-(15)---13---|
|-------------------17--------------------|
|-----------------------------------------|
|-----------------------------------------|
|-----------------------------------------|
|
|  S  E    S E  S S  S E    S   E     S S
|-----------------------------------------|
|--6-------6----6----6------6---------6---|
|--0-------0----0----5------5---------5---|
|--8-------8----8----7------7---------7---|
|-----------------------------------------|
|-----------------------------------------|
|
| +Q         Q       H
|-----------------------------------------|
|-----------------------------------------|
|-----------------------------------------|
|-----------------------------------------|
|-----------------------------------------|
|-(1)-------------------------------------|


   E   E   Q        Q      S S  E    +E     E    +Q     +Q.         E
|---------------------------------|--------------------------------------|
|-11----------------------11---13-|-(13)---15---(15)---(15)--------------|
|---------------------------------|--------------------------------------|
|---------------------------------|--------------------------------------|
|---------------------------------|--------------------------------------|
|---------------------------------|--------------------------------------|
|
|  S S E   S  S S S E S S  S S  E     S  E    S   E  E   E  S S S S S S
|---------------------------------|--------------------------------------|
|---------------3-----3----3------|---3-------3------3----------3---3----|
|--7------------3-----3----3------|---3-------3------3----------3---3----|
|--5-------5----5-----5----5------|---3-------3------3------3---3---3----|
|--5-------5----5-----5----5------|---5-------5------5------5---5--------|
|---------------------------------|--------------------------------------|
|
|  Q      +S  S E   H                 W
|-15-----(15)---------------------|--------------------------------------|
|-15-----(15)---------------------|--------------------------------------|
|-12-----(12)---------------------|--------------------------------------|
|---------------------------------|--------------------------------------|
|---------------------------------|--------------------------------------|
|---------------------------------|--------------------------------------|


   E   S  S  +S  S  S S  Q      Q
|---------------------------------------|
|-15-----13-(13)---11---11-----13-------|
|---------------------------------------|
|---------------------------------------|
|---------------------------------------|
|---------------------------------------|
|
|  S E    S   E     S S  E S S  S S S S
|---------------------------------------|
|--3------3---------3------3----3---3---|
|--3------3---------3------3----3---0---|
|--5------5---------5------5----5---0---|
|--5------5---------5------5----5-------|
|---------------------------------------|
|
| Gtr IV
|  W
|---------------------------------------|
|---------------------------------------|
|---------------------------------------|
|---------------------------------------|
|-13------------------------------------|
|-15------------------------------------|


   +Q       +S  S  S S  E S  S  +Q
|-----------------------------------------|
|-(13)-----(13)---13---13---13-(13)-------|
|-----------------------------------------|
|-----------------------------------------|
|-----------------------------------------|
|-----------------------------------------|
|
|   S  E S   E     S S  E S  S   S  S S S
|-----------------------------------------|
|---3----3---------3------3------3----3---|
|---2----2---------2------2------2----2---|
|---0----0---------0------0------0----0---|
|-----------------------------------------|
|-----------------------------------------|
|
|   W
|-----------------------------------------|
|-----------------------------------------|
|-----------------------------------------|
|-----------------------------------------|
|--12-------------------------------------|
|--13-------------------------------------|


   H           Q      S S  E      +S  S E   +Q      +Q      +S  S S S
|--------------------10---10---|-(10)---8---(8)-----(8)-----(8)---6---|
|-11---------------------------|--------------------------------------|
|------------------------------|--------------------------------------|
|------------------------------|--------------------------------------|
|------------------------------|--------------------------------------|
|------------------------------|--------------------------------------|
|
|  S E S E S S E S S  S S  S S     S  E   S  E  S S  E  S S  S  S S S
|------------------------------|--------------------------------------|
|--3---3---3-----3----3--------|--------------------------------------|
|--3---3---3-----3----3--------|---7------7-----7-------7----7----7---|
|--5---5---5-----5----5----5---|---7------7-----7-------7----7----7---|
|--5---5---5-----5----5----5---|---5------5-----5-------5----5----5---|
|------------------------------|--------------------------------------|
|
|  W                               W
|------------------------------|--------------------------------------|
|------------------------------|--------------------------------------|
|------------------------------|--------------------------------------|
|------------------------------|--------------------------------------|
|-13---------------------------|--12----------------------------------|
|-15---------------------------|--13----------------------------------|


   E   S S E S S E S S +E     S S    H            H
|-10-----8---6---6---8-(8)---10---|--8-------------------------|
|---------------------------------|----------------------------|
|---------------------------------|----------------------------|
|---------------------------------|----------------------------|
|---------------------------------|----------------------------|
|---------------------------------|----------------------------|
|
|  S E   S E E   E S S  S  S  S S    S E S E S S  S E S E S S
|---------------------------------|---------------1---1---1----|
|--3-----3---3-----3----3-----3---|--4---4---4----1---1---1----|
|--3-----3---3-----3----3-----3---|--3---3---3----2---2---2----|
|--5-----5---5-----5----5-----5---|--5---5---5----3---3---3----|
|--5-----5---5-----5----5-----5---|--6---6---------------------|
|---------------------------------|----------------------------|
|
|  W                                 H            H
|---------------------------------|----------------------------|
|---------------------------------|----------------------------|
|---------------------------------|--------------10------------|
|-12------------------------------|-13-----------10------------|
|-13------------------------------|--------------12------------|
|-15------------------------------|-11-----------13------------|


   E   S  S E  E    +Q         +S  S E
|-13-----13---13---(13)-------(13)-------|
|----------------------------------------|
|----------------------------------------|
|----------------------------------------|
|----------------------------------------|
|----------------------------------------|
|
|  S E    S E  S S   S  S S S   S  S S S
|----------------------------------------|
|--2------2----2--------2-2-----2----2---|
|--1------1----1--------1-1-----1----1---|
|--3------3----3--------3-3-----3----3---|
|----------------------------------------|
|----------------------------------------|
|
|  W
|----------------------------------------|
|----------------------------------------|
|-10-------------------------------------|
|-11-------------------------------------|
|-11-------------------------------------|
|--9-------------------------------------|


   E   S  S E  E    +Q         +S  S E
|-13-----13---13---(13)-------(13)--------|
|-----------------------------------------|
|-----------------------------------------|
|-----------------------------------------|
|-----------------------------------------|
|-----------------------------------------|
|
|  S E    S E  S S   S  S S S   S  S S S
|-----------------------------------------|
|--2------2----2--------2-2-2---2----2----|
|--3------3----3--------3-3-3---3----3----|
|--3------3----3--------3-3-3---3----3----|
|-----------------------------------------|
|-----------------------------------------|
|
|  W
|-----------------------------------------|
|-----------------------------------------|
|-----------------------------------------|
|--8--------------------------------------|
|--8--------------------------------------|
|-----------------------------------------|


   E S  S E  E    +E     E    E    E
|-13---13---13---(13)---14---13---11---|
|--------------------------------------|
|--------------------------------------|
|--------------------------------------|
|--------------------------------------|
|--------------------------------------|
|
|  E S  S E  S S   S  S  S S  S S  S S
|--------------------------------------|
|--------------------------------------|
|--3----3----3--------3--3----3----3---|
|--4----4----4--------4--4----4----4---|
|--4----4----4--------4--4----4----4---|
|--------------------------------------|
|
|  H              +H
|--------------------------------------|
|--6--------------(6)------------------|
|--6--------------(6)------------------|
|--8--------------(8)------------------|
|--9--------------(9)------------------|
|--------------------------------------|


   +S  S  E    +S  S  E    +E  E   Q
|-(11)---11---(11)---11---(11)-------------|
|------------------------------------------|
|------------------------------------------|
|------------------------------------------|
|------------------------------------------|
|------------------------------------------|
|
|   S  E    S   E     S S   E  S S S S S S
|------------------------------------------|
|---1-------1---------1--------1---1---4---|
|---1-------1---------1--------1---3---5---|
|---1-------1---------1--------1---1-------|
|------------------------------------------|
|------------------------------------------|
|
|   W
|------------------------------------------|
|---4--------------------------------------|
|---5--------------------------------------|
|---6--------------------------------------|
|------------------------------------------|
|------------------------------------------|


   E   E    S S  E    +Q.             S S
|-13-------13---13---(13)-----------------|
|------------------------------------14---|
|-----------------------------------------|
|-----------------------------------------|
|-----------------------------------------|
|-----------------------------------------|
|
|  S E   S  E    S S   S  S S S  S S  S S
|-----------------------------------------|
|-----------------------------------------|
|--6-----6-------6--------6-6----6----6-6-|
|--6-----6-------6--------6-6----6----6-6-|
|--8-----8-------8--------8-8----8----8-8-|
|-----------------------------------------|
|
| Gtr III
|  S S S S  S S  S S   S  S S S  S S  S S
|------9---------9----------9---------9---|
|----9---9----9----9------9---9----9----9-|
|-----------------------------------------|
|-11-------11---------11--------11--------|
|-----------------------------------------|
|-----------------------------------------|


   E    S S  E    E    +Q         E    E
|-13---13--------13---(13)------------------|
|--------------------------------14---16----|
|-------------------------------------------|
|-------------------------------------------|
|-------------------------------------------|
|-------------------------------------------|
|
|  S E    S  E    S S   S  S S S  S S  S  S
|-------------------------------------------|
|-------------------------------------------|
|--6------6-------6--------6-6----6----6----|
|--8------8-------8--------8-8----8----8----|
|--8------8-------8--------8-8----8----8----|
|-------------------------------------------|
|
|  S S  S S  S S  S S   S  S S S  S S  S  S
|-------9---------9----------9---------9----|
|----9----9----9----9------9---9----9-------|
|-------------------------------------------|
|-11--------11---------11--------11------11-|
|-------------------------------------------|
|-------------------------------------------|


   E   S  S  +S  S  E    +S  S  E    E    E
|---------------------------------------------|
|-18-----18-(18)---18---(18)---19---18---16---|
|---------------------------------------------|
|---------------------------------------------|
|---------------------------------------------|
|---------------------------------------------|
|
|  S E    S   E     S S   S  S  S S  S S  S S
|---------------------------------------------|
|---------------------------------------------|
|---------------------------------------------|
|--6------6---------6--------6--6----6----6---|
|--9------9---------9--------9--9----9----9---|
|---------------------------------------------|
|
|  S S S  S   S  S  S S   S  S  S S  S S  S S
|------9------------9-----------9---------9---|
|----9----9------9----9------9----9----9------|
|---------------------------------------------|
|-11---------11----------11---------11--------|
|---------------------------------------------|
|---------------------------------------------|


   +Q   Q    E  S  S  +E   E    H           H
|----------------------------|---------------------------------|
|-(16)------------15-(15)-13-|-11------------------------------|
|-----------17---------------|---------------------------------|
|----------------------------|---------------------------------|
|----------------------------|---------------------------------|
|----------------------------|---------------------------------|
|
|   H       +Q.            E    S E S E S S E  S S  S  S  S S
|----------------------------|---------------------------------|
|----------------------------|--6---6---6------6----6----------|
|---5-------(5)--------------|--7---7---7------7----7----10----|
|---6-------(6)--------------|--8---8---8------8----8-----8----|
|---6-------(6)--------------|--8---8---8------8----8-----8----|
|----------------------------|---------------------------------|
|
|   H       +H                  H           E.   S +E     E
|----------------------------|---------------------------------|
|----------------------------|---------------------------------|
|----------------------------|---------------------------------|
|--13------(13)--------------|---------------------------------|
|--11------(11)--------------|--------------1----3-(3)----5----|
|----------------------------|---------------------------------|


   H             Q       E    E      S E  S E  E    +Q        S S  E
|-----------------------10---11---|-13---13---13---(13)-----------------|
|---------------------------------|--------------------------15---16----|
|---------------------------------|-------------------------------------|
|---------------------------------|-------------------------------------|
|---------------------------------|-------------------------------------|
|---------------------------------|-------------------------------------|
|
|  S E  S E  S S E  S S  S S  S S    S E  S E  S S   E   S S  S S  S S
|---------------------------------|-------------------------------------|
|---------------------------------|-------------------------------------|
|-10---10---10-----10---10---10---|-10---10---10--------10---10---10----|
|-10---10---10-----10---10---10---|--8----8----8---------8----8----8----|
|-12---12---12-----12---12---12---|-10---10---10--------10---10---10----|
|---------------------------------|-------------------------------------|
|
|  H             H                   W
|---------------------------------|-------------------------------------|
|---------------------------------|-------------------------------------|
|---------------------------------|-------------------------------------|
|---------------------------------|--3----------------------------------|
|--3------------------------------|-------------------------------------|
|----------------1----------------|-------------------------------------|


   S  E  S  +S  S  S S  E    E   E  E      H           H
|---------------------------------------|-------------------------------|
|-18----18-(18)---18--------15-----13---|-11----------------------------|
|----------------------17---------------|-------------------------------|
|---------------------------------------|-------------------------------|
|---------------------------------------|-------------------------------|
|---------------------------------------|-------------------------------|
|
|  S  E  S   E     S S  S E    S E  S S    S E S E S S E  S S  S  S S S
|---------------------------------------|-------------------------------|
|--6-----6---------6----6------6----6---|--6---6---6------6----6----6---|
|--8-----8---------8----5------5----5---|--7---7---7------7----7----7---|
|--8-----8---------8----7------7----7---|--8---8---8------8----8----8---|
|-10----10--------10--------------------|--8---8---8------8----8----8---|
|---------------------------------------|-------------------------------|
|
| +Q         Q          H                  H           E.   S +E    E
|---------------------------------------|-------------------------------|
|---------------------------------------|-------------------------------|
|---------------------------------------|-------------------------------|
|-(3)-----------------------------------|-------------------------------|
|---------------------------------------|--------------1----3-(3)---5---|
|---------------------------------------|-------------------------------|


  H           Q      E    S S    S  E  S E  E    +Q       S S  S S
|-------------------10---11---|-13----13---13---(13)----------------|
|-----------------------------|--------------------------15---16----|
|-----------------------------|-------------------------------------|
|-----------------------------|-------------------------------------|
|-----------------------------|-------------------------------------|
|-----------------------------|-------------------------------------|
|
| S E S E S S E S S  S S  S S    S  E  S E  S S   E  S S  S S  S S
|-----------------------------|-------------------------------------|
|-6---6---6-----6----6----6---|--6-----6----6--------6----6----6----|
|-5---5---5-----5----5----5---|--0-----0----0--------0----0----0----|
|-7---7---7-----7----7----7---|--8-----8----8--------8----8----8----|
|-----------------------------|-------------------------------------|
|-----------------------------|-------------------------------------|
|
| H           H                 +W
|-----------------------------|-------------------------------------|
|-----------------------------|-------------------------------------|
|-----------------------------|-------------------------------------|
|-----------------------------|-------------------------------------|
|-3---------------------------|-------------------------------------|
|-------------1---------------|-(1)---------------------------------|


   E    S  S E     S S  E    E  S  E   S    E   E    Q      Q       E    S  S
|----------------------------------------|------------------------------------|
|-18------18------18--------15----13-----|-11----------------------11------13-|
|----------------------17----------------|------------------------------------|
|----------------------------------------|------------------------------------|
|----------------------------------------|------------------------------------|
|----------------------------------------|------------------------------------|
|
|  S  E    S S  S  S S  S S  E  E    E      S E    S E  S S E  S S  S S  S  S
|----------------------------------------|------------------------------------|
|----------------------------------------|------------------------------------|
|--8-------8-------8---10------11--------|------------------------------------|
|--8-------8----8--8---10------12--------|-12-----12---12-----12---12---12----|
|-10------10---10-10---12----------------|-13-----13---13-----13---13---13----|
|----------------------------------------|-15-----15---15-----15---15---15----|
|
| +Q         Q          H                   W
|----------------------------------------|------------------------------------|
|----------------------------------------|------------------------------------|
|----------------------------------------|------------------------------------|
|----------------------------------------|------------------------------------|
|----------------------------------------|------------------------------------|
|-(1)------------------------------------|------------------------------------|


   +E     E     +Q        +E   E    Q
|--------------------------------------------|
|-(13)---15----(15)------(15)----------------|
|----------------------------------15--------|
|--------------------------------------------|
|--------------------------------------------|
|--------------------------------------------|
|
|   S  E     S   E   S S   E   S S  S S  S S
|--------------------------------------------|
|--------------------------------------------|
|--------------------------------------------|
|--12-------12------12--------12---12---12---|
|--13-------13------13--------13---13---13---|
|--13-------13------13--------13---13---13---|
|
| Gtr IV
|   W
|--------------------------------------------|
|--------------------------------------------|
|--------------------------------------------|
|--------------------------------------------|
|---8----------------------------------------|
|--------------------------------------------|


   E.    S  +S  S  S S  E.    S  +S  S  E
|-------------------------------------------|
|-16----15-(15)--------------13-(13)---15---|
|-----------------15---15-------------------|
|-------------------------------------------|
|-------------------------------------------|
|-------------------------------------------|
|
|  S  E  S   E     S S  S  E  S   E     S S
|-------------------------------------------|
|-----------------------4-----4---------4---|
|-----------------------5-----5---------5---|
|-13----13--------13----8-----8---------8---|
|-13----13--------13------------------------|
|-15----15--------15------------------------|
|
|  Q.              E    H
|-------------------------------------------|
|-------------------------------------------|
|--8--------------------5-------------------|
|--8--------------------8-------------------|
|-------------------------------------------|
|-11--------------------8-------------------|


   W                            +H           H
|----------------------------|--------------------------|
|-13-------------------------|-(13)---------------------|
|----------------------------|--------------------------|
|----------------------------|--------------------------|
|----------------------------|--------------------------|
|----------------------------|--------------------------|
|
|  E S S E S S E S S S S S S     Q   +S  S E E. S +E  E
|----------------------------|---1---(1)----------------|
|--6---6---6-----6---6---6-6-|---1---(1)-----1--2-(2)-4-|
|--5---5---5-----5---3---3-3-|---2---(2)----------------|
|--7---7---7-----7---7---7-7-|---3---(3)----------------|
|----------------------------|--------------------------|
|----------------------------|--------------------------|
|
|  W                             W
|----------------------------|--------------------------|
|--6-------------------------|--------------------------|
|--5-------------------------|---2----------------------|
|--3-------------------------|--------------------------|
|----------------------------|--------------------------|
|----------------------------|--------------------------|


   S E  S E  E  +Q    +S  S E
|-13---13---13-(13)--(13)------|
|------------------------------|
|------------------------------|
|------------------------------|
|------------------------------|
|------------------------------|
|
|  H            +Q    +S  S E
|------------------------------|
|--6------------(6)---(6)------|
|--6------------(6)---(6)------|
|--6------------(6)---(6)------|
|--4------------(4)---(4)------|
|------------------------------|
|
|  W
|------------------------------|
|--2---------------------------|
|--1---------------------------|
|--3---------------------------|
|------------------------------|
|------------------------------|


   E S  S E  E  +Q    +S  S E    E S  S E  E  +E   E  E  E
|-13---13---13-(13)--(13)-----|-13---13---13-(13)-14-13-11-|
|-----------------------------|----------------------------|
|-----------------------------|----------------------------|
|-----------------------------|----------------------------|
|-----------------------------|----------------------------|
|-----------------------------|----------------------------|
|
|  W                             H            +Q.        E
|-----------------------------|----------------------------|
|--6--------------------------|--6------------(6)----------|
|--6--------------------------|--6------------(6)----------|
|--8--------------------------|--8------------(8)----------|
|--8--------------------------|--9------------(9)----------|
|--6--------------------------|--9------------(9)----------|
|
|  W                             W
|-----------------------------|----------------------------|
|-----------------------------|----------------------------|
|--3--------------------------|--1-------------------------|
|-----------------------------|--4-------------------------|
|-----------------------------|----------------------------|
|-----------------------------|----------------------------|


   +E  S  S  +E  S  S  +Q   Q
|-(11)---11-(11)---11-(11)------|
|-------------------------------|
|-------------------------------|
|-------------------------------|
|-------------------------------|
|-------------------------------|
|
|   H                  +H
|-------------------------------|
|---4------------------(4)------|
|---5------------------(5)------|
|---6------------------(6)------|
|---6------------------(6)------|
|---4------------------(4)------|
|
|   W
|-------------------------------|
|---1---------------------------|
|-------------------------------|
|---1---------------------------|
|-------------------------------|
|-------------------------------|


   E S  S E  E  +Q.    S S    E S  S E  E  +Q    E  E
|-13---13---13-(13)--------|-13---13---13-(13)--------|
|---------------------14---|--------------------14-16-|
|--------------------------|--------------------------|
|--------------------------|--------------------------|
|--------------------------|--------------------------|
|--------------------------|--------------------------|
|
|  W                          H             H
|--------------------------|--------------------------|
|--6-----------------------|--6-----------------------|
|--6-----------------------|--6-----------------------|
|--6-----------------------|--8-----------------------|
|--8-----------------------|--8-----------------------|
|--9-----------------------|--6-----------------------|
|
|  W                          W
|--------------------------|--------------------------|
|--2-----------------------|--------------------------|
|--------------------------|--3-----------------------|
|--3-----------------------|--------------------------|
|--------------------------|--------------------------|
|--------------------------|--------------------------|


   E S  S  +S  S  E  +S  S  E  E  E
|-----------------------------------|
|-18---18-(18)---18-(18)---19-18-16-|
|-----------------------------------|
|-----------------------------------|
|-----------------------------------|
|-----------------------------------|
|
|  H                  H
|--1--------------------------------|
|--2--------------------------------|
|--3--------------------------------|
|--4--------------------------------|
|-----------------------------------|
|--2--------------------------------|
|
|  W
|-----------------------------------|
|-----------------------------------|
|-----------------------------------|
|--4--------------------------------|
|-----------------------------------|
|-----------------------------------|


   +Q   Q  H       W                    +H.      Q
|---------------|--------------------|---------------|
|-(16)----------|-18-----------------|-(18)----------|
|---------------|--------------------|---------------|
|---------------|--------------------|---------------|
|---------------|--------------------|---------------|
|---------------|--------------------|---------------|
|
|   H      H       H    +Q   +S  S E     W
|---------------|--------------------|---------------|
|---4-----------|--3----(3)--(3)-----|---------------|
|---5-----------|--3----(3)--(3)-----|---------------|
|---6-----------|--3----(3)--(3)-----|---------------|
|---6-----------|--------------------|---------------|
|---4-----------|--6----(6)--(6)-----|---------------|
|
|   W              W                    +W
|---------------|--------------------|---------------|
|---------------|--------------------|---------------|
|---5-----------|--------------------|---------------|
|---------------|--8-----------------|--(8)----------|
|---6-----------|--8-----------------|--(8)----------|
|---------------|--6-----------------|--(6)----------|


  E    E    +E     E    +E     E    +E     E
|----------------------------------------------|
|-----18---(18)---16---(16)---15---(15)---13---|
|----------------------------------------------|
|----------------------------------------------|
|----------------------------------------------|
|----------------------------------------------|
|
| S S  S S   S  S  S S   S  S  S S   S  S  S S
|-1------1-----------1---1-----1-----1-----1---|
|-3----3-3------3----3---3-----3-----3-----3---|
|-3----3-3------3----3---3-----3-----3-----3---|
|-3----3-3---------3-3---3-----3-----3-----3---|
|----------------------------------------------|
|----------------------------------------------|


   +Q        S  E    S  +E     E    +E    E
|--------------13---11-(11)---10---(10)---8---|
|-(13)----------------------------------------|
|---------------------------------------------|
|---------------------------------------------|
|---------------------------------------------|
|---------------------------------------------|
|
|   S  S S S S  S S  S   S  S  S S   S  S S S
|---1------1----1-1--1---1-----1-----1----1---|
|---1----1-1----1-1--1---1-----1-----1----1---|
|---2----2-2----2-2--2---2-----2-----2----2---|
|---------------------------------------------|
|---------------------------------------------|
|---------------------------------------------|


  +E     E    +E     E    +E     E    +E     E
|-(8)---13---(13)---11---(11)---10---(10)--------|
|-------------------------------------------11---|
|------------------------------------------------|
|------------------------------------------------|
|------------------------------------------------|
|------------------------------------------------|
|
|  S  S  S S   S  S  S S   S  S  S S   S  S  S S
|------------------------------------------------|
|--6-------6------6----6---6-----6-----6-----6---|
|--3-----3-3------3--3-3---3-----3-----3-----3---|
|--5-----5-5------5--5-5---5-----5-----5-----5---|
|------------------------------------------------|
|------------------------------------------------|


   +Q         H                E    E
|------------13-------------------------|
|-(11)------------------------13---15---|
|---------------------------------------|
|---------------------------------------|
|---------------------------------------|
|---------------------------------------|
|
|   S  S S S  S S S S S S S S  S S  S S
|---------------------1---1----1----1---|
|---4----4-4----4-4-4-1---1----1----1---|
|---3----3-3----3-3-3-2---2----2----2---|
|---5----5-5----5-5-5-------------------|
|---------------------------------------|
|---------------------------------------|


   +Q         E    E    +E     E    +E    E
|------------13---11---(11)---10---(10)---8---|
|-(15)----------------------------------------|
|---------------------------------------------|
|---------------------------------------------|
|---------------------------------------------|
|---------------------------------------------|
|
|   S  S S S  S S  S S   S  S  S S   S  S S S
|---1------1----1--1-1---1-----1-----1----1---|
|---3----3-3----3--3-3---3-----3-----3----3---|
|---3----3-3----3--3-3---3-----3-----3----3---|
|---3----3-3----3--3-3---3-----3-----3----3---|
|---------------------------------------------|
|---------------------------------------------|
|
| Gtr IV
|   W
|---------------------------------------------|
|---------------------------------------------|
|---------------------------------------------|
|---8-----------------------------------------|
|---------------------------------------------|
|---------------------------------------------|


  +E     E    +E     E    +E     E    +E     E
|-(8)---13---(13)---11---(11)---10---(10)--------|
|-------------------------------------------11---|
|------------------------------------------------|
|------------------------------------------------|
|------------------------------------------------|
|------------------------------------------------|
|
|  S  S  S S   S  S  S S   S  S  S S   S  S  S S
|--1-----1-1------1--1-1---1-----1-----1-----1---|
|--1-----1-1------1--1-1---1-----1-----1-----1---|
|--2-----2-2------2--2-2---2-----2-----2-----2---|
|------------------------------------------------|
|------------------------------------------------|
|------------------------------------------------|
|
|  W
|------------------------------------------------|
|------------------------------------------------|
|------------------------------------------------|
|-10---------------------------------------------|
|------------------------------------------------|
|------------------------------------------------|


  E    E    +E     E    +E     E    +E     E
|-----13---(13)---11---(11)---10---(10)--------|
|-----------------------------------------11---|
|----------------------------------------------|
|----------------------------------------------|
|----------------------------------------------|
|----------------------------------------------|
|
| S S  S S   S  S  S S   S  S  S S   S  S  S S
|------------------------------------------1---|
|-6----6-6------6--6-6---6-----6-6------6------|
|-3----3-3------3--3-3---3-----3-3------3----3-|
|-5----5-5------5--5-5---5-----5-5------5----5-|
|----------------------------------------------|
|----------------------------------------------|
|
| Gtr III
| W
|----------------------------------------------|
|----------------------------------------------|
|----------------------------------------------|
|----------------------------------------------|
|----------------------------------------------|
|----------------------------------------------|


   +Q   Q   E.  S  +E   E    Q     Q     H
|-------------------------|-------------------------------|
|-(11)-----13--15-(15)-13-|-11----------------------------|
|-------------------------|-------------------------------|
|-------------------------|-------------------------------|
|-------------------------|-------------------------------|
|-------------------------|-------------------------------|
|
|   H       H                S E S E S S E  S S  S  S S S
|-----------1-------------|--1---1---1------1----1----1---|
|---4-------1-------------|--3---3---3------3----3--------|
|---3-------2-------------|--3---3---3------3----3----3---|
|---5-------3-------------|--3---3---3------3----3----3---|
|---6---------------------|-------------------------------|
|-------------------------|-------------------------------|
|
|   W                        H           E.   S +E    E
|-------------------------|-------------------------------|
|-------------------------|-------------------------------|
|-------------------------|-------------------------------|
|-------------------------|-------------------------------|
|-------------------------|--------------1----3-(3)---5---|
|-------------------------|-------------------------------|


  H           Q      E    E      S E  S E  E    +Q       E    E
|-------------------10---11---|-13---13---13---(13)----------------|
|-----------------------------|-------------------------15---16----|
|-----------------------------|------------------------------------|
|-----------------------------|------------------------------------|
|-----------------------------|------------------------------------|
|-----------------------------|------------------------------------|
|
| S E S E S S E S S  S S  S S    S E  S E  S S   E  S S  S S  S S
|-1---1---1-----1----1----1---|------------------------------------|
|-1---1---1-----1----1----1---|--6----6----6--------6----6----6----|
|-2---2---2-----2----2----2---|--3----3----3--------3----3----3----|
|-----------------------------|--5----5----5--------5----5----5----|
|-----------------------------|------------------------------------|
|-----------------------------|------------------------------------|
|
| H           H                  W
|-----------------------------|------------------------------------|
|-----------------------------|------------------------------------|
|-----------------------------|------------------------------------|
|-----------------------------|--3---------------------------------|
|-3---------------------------|------------------------------------|
|-------------1---------------|------------------------------------|


   S  E  S  +S  S  S S  E    E    +S  S  E      Q     Q     H
|--------------------------------------------|-------------------------------|
|-18----18-(18)---18--------15---(15)---13---|-11----------------------------|
|----------------------17--------------------|-------------------------------|
|--------------------------------------------|-------------------------------|
|--------------------------------------------|-------------------------------|
|--------------------------------------------|-------------------------------|
|
|  S  E  S   E     S S  S E    S   E     S S    S E S E S S E  S S  S  S S S
|--1-----1---------1----1------1---------1---|--1---1---1------1----1----1---|
|--4-----4---------4----1------1---------1---|--3---3---3------3----3----3---|
|--3-----3---------3----2------2---------2---|--3---3---3------3----3----3---|
|--5-----5---------5-------------------------|--3---3---3------3----3----3---|
|--------------------------------------------|-------------------------------|
|--------------------------------------------|-------------------------------|
|
| +Q         Q          H                       H           E.   S +E    E
|--------------------------------------------|-------------------------------|
|--------------------------------------------|-------------------------------|
|--------------------------------------------|-------------------------------|
|-(3)----------------------------------------|-------------------------------|
|--------------------------------------------|--------------1----3-(3)---5---|
|--------------------------------------------|-------------------------------|


  H           Q      E    S S    S  E  S S  E.      +E  E    S S  S S
|-------------------10---11---|-13----13---13------(13)---------------|
|-----------------------------|-----------------------------15---16---|
|-----------------------------|---------------------------------------|
|-----------------------------|---------------------------------------|
|-----------------------------|---------------------------------------|
|-----------------------------|---------------------------------------|
|
| S E S E S S E S S  S S  S S    S  E  S E     S S   E  S S  S S  S S
|-1---1---1-----1----1----1---|---------------------------------------|
|-1---1---1-----1----1----1---|--6-----6-------6--------6----6----6---|
|-2---2---2-----2----2----2---|--3-----3-------3--------3----3----3---|
|-----------------------------|--5-----5-------5--------5----5----5---|
|-----------------------------|---------------------------------------|
|-----------------------------|---------------------------------------|
|
| H           H                 +W
|-----------------------------|---------------------------------------|
|-----------------------------|---------------------------------------|
|-----------------------------|---------------------------------------|
|-----------------------------|---------------------------------------|
|-3---------------------------|---------------------------------------|
|-------------1---------------|-(1)-----------------------------------|


   E    S  S E  S S  E    E   S  E   S    E   E   Q     H
|--------------------------------------|---------------------------------|
|-18------18---18--------15-----13-----|-11------------------------------|
|-------------------17-----------------|---------------------------------|
|--------------------------------------|---------------------------------|
|--------------------------------------|---------------------------------|
|--------------------------------------|---------------------------------|
|
|  S  E    S E  S S  S E    S E    S S    S E   S E S S E  S S  S  S S S
|--------------------1------1------1---|--1-----1---1------1----1----1---|
|--6-------6----6----1------1------1---|--3-----3---3------3----3--------|
|--3-------3----3----2------2------2---|--3-----3---3------3----3----3---|
|--5-------5----5----------------------|--3-----3---3------3----3----3---|
|--------------------------------------|---------------------------------|
|--------------------------------------|---------------------------------|
|
| +Q         Q       H                    H             E.   S +E    E
|--------------------------------------|---------------------------------|
|--------------------------------------|---------------------------------|
|--------------------------------------|---------------------------------|
|--------------------------------------|---------------------------------|
|--------------------------------------|----------------1----3-(3)---5---|
|-(1)----------------------------------|---------------------------------|


  H           Q      E    E      S E  S E  E    +Q       E    E
|-------------------10---11---|-13---13---13---(13)----------------|
|-----------------------------|-------------------------15---16----|
|-----------------------------|------------------------------------|
|-----------------------------|------------------------------------|
|-----------------------------|------------------------------------|
|-----------------------------|------------------------------------|
|
| S E S E S S E S S  S S  S S    S E  S E  S S   E  S S  S S  S S
|-1---1---1-----1----1----1---|------------------------------------|
|-1---1---1-----1----1----1---|--6----6----6--------6----6----6----|
|-2---2---2-----2----2----2---|--3----3----3--------3----3----3----|
|-----------------------------|--5----5----5--------5----5----5----|
|-----------------------------|------------------------------------|
|-----------------------------|------------------------------------|
|
| H           H                  W
|-----------------------------|------------------------------------|
|-----------------------------|------------------------------------|
|-----------------------------|------------------------------------|
|-----------------------------|--3---------------------------------|
|-3---------------------------|------------------------------------|
|-------------1---------------|------------------------------------|


   E    S  S  +S  S  S S  E   S  S  +S  S  E      H           H
|----------------------------------------------|-------------------------------|
|-18------18-(18)---18----------15-(15)---13---|-11----------------------------|
|------------------------17--------------------|-------------------------------|
|----------------------------------------------|-------------------------------|
|----------------------------------------------|-------------------------------|
|----------------------------------------------|-------------------------------|
|
|  S  E    S   E     S S  S E    S   E     S S    S E S E S S E  S S  S  S S S
|--1-------1---------1----1------1---------1---|--1---1---1------1----1----1---|
|--4-------4---------4----1------1---------1---|--3---3---3------3----3----3---|
|--3-------3---------3----2------2---------2---|--3---3---3------3----3----3---|
|--5-------5---------5-------------------------|--3---3---3------3----3----3---|
|----------------------------------------------|-------------------------------|
|----------------------------------------------|-------------------------------|
|
| +Q           Q          H                       H           E.   S +E    E
|----------------------------------------------|-------------------------------|
|----------------------------------------------|-------------------------------|
|----------------------------------------------|-------------------------------|
|-(3)------------------------------------------|-------------------------------|
|----------------------------------------------|--------------1----3-(3)---5---|
|----------------------------------------------|-------------------------------|


  H           Q      E    E      E    S  S E  E    +Q       S S  E
|-------------------10---11---|-13------13---13---(13)---------------|
|-----------------------------|----------------------------15---16---|
|-----------------------------|--------------------------------------|
|-----------------------------|--------------------------------------|
|-----------------------------|--------------------------------------|
|-----------------------------|--------------------------------------|
|
| S E S E S S E S S  S S  S S    S  E    S E  S S   E  S S  S S  S S
|-1---1---1-----1----1----1---|--------------------------------------|
|-1---1---1-----1----1----1---|--6-------6----6--------6----6----6---|
|-2---2---2-----2----2----2---|--3-------3----3--------3----3----3---|
|-----------------------------|--5-------5----5--------5----5----5---|
|-----------------------------|--------------------------------------|
|-----------------------------|--------------------------------------|
|
| H           H                 +W
|-----------------------------|--------------------------------------|
|-----------------------------|--------------------------------------|
|-----------------------------|--------------------------------------|
|-----------------------------|--------------------------------------|
|-3---------------------------|--------------------------------------|
|-------------1---------------|-(1)----------------------------------|


   E    S  S E    S S  E   S  S  +S  S  E    E   E   Q     Q      E    E
|-----------------------------------------|--------------------------------|
|-18------18-----18----------15-(15)---13-|-11-------------------11---13---|
|---------------------17------------------|--------------------------------|
|-----------------------------------------|--------------------------------|
|-----------------------------------------|--------------------------------|
|-----------------------------------------|--------------------------------|
|
|  S  E    S S S  S S  S S E      E     E    S E   S E S S E S S  S S  S S
|----------------------1----------2-------|--------------------------------|
|--4-------4------4----1----------3-------|--3-----3---3-----3----3----3---|
|--3-------3---3--3----2------------------|--3-----3---3-----3----3----3---|
|--5-------5---5--5-----------------------|--5-----5---5-----5----5----5---|
|-----------------------------------------|--------------------------------|
|-----------------------------------------|--------------------------------|
|
| +Q         Q         H                     W
|-----------------------------------------|--------------------------------|
|-----------------------------------------|--------------------------------|
|-----------------------------------------|--------------------------------|
|-----------------------------------------|--------------------------------|
|-----------------------------------------|--------------------------------|
|-(1)-------------------------------------|--------------------------------|


   +E     E    +Q       +Q.          S S
|----------------------------------------|
|-(13)---15---(15)-----(15)--------------|
|-----------------------------------15---|
|----------------------------------------|
|----------------------------------------|
|----------------------------------------|
|
|   S  E    S   E  S S   E  S S S S  S S
|----------------------------------------|
|---3-------3------3--------3---3----3---|
|---3-------3------3--------3---3----3---|
|---3-------3------3--------3---3----3---|
|----------------------------------------|
|----------------------------------------|
|
| Gtr IV
|   W
|----------------------------------------|
|----------------------------------------|
|----------------------------------------|
|----------------------------------------|
|---8------------------------------------|
|----------------------------------------|


   E.    S  +S  S  S S  E.    S  +S  S  E
|-------------------------------------------|
|-16----15-(15)--------------13-(13)---15---|
|-----------------15---15-------------------|
|-------------------------------------------|
|-------------------------------------------|
|-------------------------------------------|
|
|  S  E  S   E     S S  S  E  S   E     S S
|-------------------------------------------|
|--4-----4---------4----4-----4---------4---|
|--3-----3---------3----5-----5---------5---|
|--5-----5---------5----8-----8---------8---|
|-------------------------------------------|
|-------------------------------------------|
|
|  Q.              E    H
|-------------------------------------------|
|-------------------------------------------|
|--8--------------------5-------------------|
|--8--------------------8-------------------|
|-------------------------------------------|
|-11--------------------8-------------------|


   W                            +H           H      W
|----------------------------|--------------------|----------------|
|-13-------------------------|-(13)---------------|----------------|
|----------------------------|--------------------|----------------|
|----------------------------|--------------------|----------------|
|----------------------------|--------------------|----------------|
|----------------------------|--------------------|----------------|
|
|  E S S E S S E S S S S S S     Q   +S  S E H      S E. +Q   H
|----------------------------|---1---(1)----------|----------------|
|--6---6---6-----6---6---6-6-|---1---(1)----------|---3--(3)-------|
|--5---5---5-----5---3---3-3-|---2---(2)----------|---3--(3)-------|
|--7---7---7-----7---7---7-7-|---3---(3)----------|-3--------------|
|----------------------------|--------------------|-5--------------|
|----------------------------|--------------------|----------------|
|
|  W                             W                  W
|----------------------------|--------------------|----------------|
|--6-------------------------|--------------------|-3--------------|
|--5-------------------------|---2----------------|-3--------------|
|--3-------------------------|--------------------|-3--------------|
|----------------------------|--------------------|-1--------------|
|----------------------------|--------------------|----------------|


  Gtr IV
  +W
|--------*|
|-(3)----*|
|-(3)----*|
|-(3)----*|
|-(1)----*|
|--------*|


Duration Legend
---------------
W - whole; H - half; Q - quarter; E - 8th; S - 16th; T - 32nd; X - 64th; a - acciaccatura
+ - note tied to previous; . - note dotted; .. - note double dotted
Uncapitalized letters represent notes that are staccato (1/2 duration)
Irregular groupings are notated above the duration line
Duration letters will always appear directly above the note/fret number it represents the
duration for.  Duration letters with no fret number below them represent rests.  Multi-
bar rests are notated in the form Wxn, where n is the number of bars to rest for.  Low
melody durations appear below the staff

Tablature Legend
----------------
 h   - hammer-on
 p   - pull-off
 b   - bend
 pb  - pre-bend
 r   - bend release (if no number after the r, then release immediately)
 /\  - slide into or out of (from/to "nowhere")
 s   - legato slide
 S   - shift slide
  - natural harmonic
[n]  - artificial harmonic
n(n) - tapped harmonic
 ~   - vibrato
 tr  - trill
 T   - tap
 TP  - trem. picking
 PM  - palm muting
\n/  - tremolo bar dip; n = amount to dip
 \n  - tremolo bar down
 n/  - tremolo bar up
/n\  - tremolo bar inverted dip
 =   - hold bend; also acts as connecting device for hammers/pulls
 <>  - volume swell (louder/softer)
 x   - on rhythm slash represents muted slash
 o   - on rhythm slash represents single note slash

Misc Legend
-----------
 |  - bar
||  - double bar
||o - repeat start
o|| - repeat end
*|  - double bar (ending)
 :  - bar (freetime)
 $  - Segno
 &  - Coda
Tempo markers -  = BPM(8/16=s8/s16), where s8 = swing 8ths, s16 = swing 16ths
Tap to rate this tab
# A B C D E F G H I J K L M N O P Q R S T U V W X Y Z