Song name
# A B C D E F G H I J K L M N O P Q R S T U V W X Y Z

Backstreet Boys - Incomplete tab

Highlighted       Show chord diagrams
Artist: Backstreet Boys
Song: Incomplete
Album: Never Gone

Chorded by Phil Tay while is bored at home !

Http://www.wakeboard.com.sg - Home of Singaporean wakeboarders

Standard tuning

Intro :

  Dm          Am         C         G
||--------1----------0---------0-----------------------|
||------3---3------1---1-----1---1-1-1-0-3-------------|
||----2----------2---------0---------------------------|
||--0----------2---------------------------------------|
||-----------------------3---------3-3---3-------------|
||-----------------------------------------------------|

  Dm          Am         C         G
||--------1----------0---------0-----------------------|
||------3---3------1---1-----1---1-3-1-0-0-1-----------|
||----2----------2---------0---------------------------|
||--0----------2---------------------------------------|
||-----------------------3---------3-------------------|
||-----------------------------------------------------|

Verse 1

Dm     Am
  Empty spaces
C             G
  Fill me up with holes
Dm      Am        
  Distant faces
C           G	      
  With no place left to go
Dm           Am      
  Without you within me
C          G
  I can't find no rest
Dm         Am                    
  Where I'm going  
C      G         F 
  Is anybody's guess

Am       C
I've tried
  G                        
To go on like I never knew you
Am      C
  I'm awake
        G
But my world is half asleep
Am      C
   I pray
          G             
For this heart to be unbroken
     F                  Am         G  
But without you all I'm going to be is

Incomplete

Break:

Dm   Am   C   G  x2

Dm      Am
  Voices tell me
C           G 
  I should carry on
Dm        Am
  But I am swimming
C       G           Dm
  In an ocean all alone
      Am
  Baby, my baby
C              G
  It's written on your face
Dm         Am
  You still wonder
C        G             F
  If we made a big mistake

Am       C
I've tried
  G                        
To go on like I never knew you
Am      C
  I'm awake
        G
But my world is half asleep
Am      C
   I pray
          G             
For this heart to be unbroken
     F                  Am         G  
But without you all I'm going to be is
       F
Incomplete

Am                      G
I don't mean to drag it on
                             F
But I can't seem to let you go
Am	                G	              
I don't wanna make you face this world alone

Break:  Dm   Am   C   G  x2

Am       C
I've tried
  G                        
To go on like I never knew you
Am      C
  I'm awake
        G
But my world is half asleep
Am      C
   I pray
          G             
For this heart to be unbroken
     F                  Am         G  
But without you all I'm going to be is
      
Incomplete

Ending [ fade Out ]: Dm   Am   C   G  x3

Tap to rate this tab
# A B C D E F G H I J K L M N O P Q R S T U V W X Y Z