Song name
# A B C D E F G H I J K L M N O P Q R S T U V W X Y Z

Backyard Babies - Roads tab

||---------------------------------------7/9-9-9--7------------------------------||
||------------------------7/9-9-9-9-7---7/9-9-9--7--9-9-9/6----------------------||
||------4---6/8-8-8/6—6/8---------------------------8-8-8/6---6^8-4---4-6-6-6----||
||4-4/6---6---------------------------------------------------------6------------||
||-------------------------------------------------------------------------------||
||-------------------------------------------------------------------------------||



||------------------------------------------------------------------7-9—9/11-9/7-||
||--------------------------------------------------------------7-9--------------||
||-4-6^^^^8---4---4--4--4--4-----4-------4--4-5—3^^^4----------------------------||
||--------------6------------4-6-4-4-6-4---6------------6-4----------------------||
||-------------------------------------------------------------------------------||
-
-’
||---7-------7-------------------------------------------------------------------||
||-9-----9-7-7h9-7------------------7--7-7^^9------------------------------------||
||-----------------6-4-6-6--6-4-6/8--------------4-------------------------------||
||-------------------------------------------------------------------------------||
||-------------------------------------------------------------------------------||
||-------------------------------------------------------------------------------||
Tap to rate this tab
# A B C D E F G H I J K L M N O P Q R S T U V W X Y Z