Song name
# A B C D E F G H I J K L M N O P Q R S T U V W X Y Z

Backyard Galaxy - Hungry tab

Backyard Galaxy - Hungry
http://www.backyardgalaxy.com

Song starts with just Acoustic & Electric play this together twice:

Acoustic Riff 2x			Electric Riff 2x
e|-------------------------------	e|-----------9-------------------|
B|-------------------------------	B|-----10-12---12-10-----12------|
G|----------6--------------------	G|-9h11-------------11-9----9-8--|
D|------7-9---9-7-----9----------	D|-------------------------------|
A|--7h9-----------9-7---7-6------	A|-------------------------------|
E|-------------------------------	E|-------------------------------|

Fm#                E       B             Fm#                E       B
{Electric RIFF}

Fm#                E       B              Fm#                E       B
    Down into darkness                             Driving through my tears
G                Fm#  A                  G                Fm#  A
    Where am I going?                                What do I fear?
Fm#                E     B                Fm#                 E    B
    A table prepared for me                         A feast of bread and wine
G                              Fm#  A
    But I'm going through the drive thru
G                              Fm#   A
    I do not have the time

Fm#                E       B             Fm#                E       B
      {Electric RIFF}

Fm#                E       B              Fm#                E       B
    Shadows and silhouettes                     Cigarettes and beer
G                Fm#  A                  G                Fm#  A
    Where is the light?                              Why can't I hear?
Fm#                   E     B            Fm#                   E     B
{ Electric FILL }
    Your Body and Your Blood                    Served to me on a plate
G                              Fm#  A      G                         Fm#   A
{ Electric FILL }
 It's not that I don't want you Lord          It's just that I already ate


A     Fm#          Bm               Fm#           A
  But I wonder why I find I'm still hungry?
A       Fm#            Bm           Fm#                A
    When I have had my fill of all the things I touch and see
A   Fm#             Bm             G
  It should remind me I'm never uninvited...
G          Bm        {G-rest}    Fm#
  ... No I'm never uninvited to your feast
Fm#                E       B             Fm#                E       B
       {Electric RIFF}

A     Fm#       Bm      Fm#      A
     {  GUITAR SOLO }
A     Fm#       Bm      Fm#      A
     {  GUITAR SOLO cont.}
A   Fm#             Bm             G
     {  GUITAR SOLO cont.}
G          Bm        G             Fm#
     {  GUITAR SOLO cont.}
A     Fm#          Bm               Fm#             A
  And I wonder why I find I'm still hungry?
A       Fm#        Bm           Fm#                  A
    When even in my sin You will invite me to taste and see
A      Fm#                     Bm      G
  Your goodness Lord and I'm never uninvited...
G           Bm      G
  ... No I'm never uninvited ...................
G           Bm      G
  ... Yes I'm never uninvited ...................
G           Bm      G               Fm#
  ... I'm never uninvited to your feast

Fm#                E       B             Fm#                E       B
  {Electric  RIFF}
Fm#                E       B             Fm#                E       B
  {Electric RIFF}


Electric FILL:

---------------9----------------------------------------------------------|
-------10--10----------10--10----------------12--12--15-------12--12------|
--11-11--11--11---11-11--11--11---------12-12--12--12----12-12--12--12----|
-------------------------------11-------------------------------------12--|
--------------------------------------------------------------------------|
--------------------------------------------------------------------------|

Electric Solo        (Digitech RP80=63)

-----9----------------------------16-17-19p17p16h17p16--17p16-------------|
-------12~~ 12\9-------9------------------------------19-----17-19~~~~----|
-9\11------------11-9-11-11~~~--------------------------------------------|
--------------------------------------------------------------------------|
--------------------------------------------------------------------------|
--------------------------------------------------------------------------|

--------------------------------------------------------------------------|
---------------------------------------9~~~~------------------------------|
--------------------------------------------11-11p9-----------------------|
11-11h12p11p9-9h11--11-11h12p11p9-9h11--------------11p9------------------|
---------------------------------------------------------11p9-------------|
--------------------------------------------------------------------------|

--------------------------------------------------------------------------|
--12---------9-------------------------------------9-10-12--10p9----------|
--x---13p11--x-11 9-11-9-----------------------9-11--------------9-11-----|
--x---x------x----------11-9---------------9-11---------------------------|
--x---x------x--------------11-9-------9-11-------------------------------|
------x------x------------------12-9-12-----------------------------------|

--v12~~~~-14-14~-14p12-----14-16-17-17~~21~-21-21-19-19-------------------|
--------------------14p12---x--------------------------22-22-22-19~-------|
------------------------13--x---------------------------------------------|
----------------------------x---------------------------------------------|
--------------------------------------------------------------------------|
--------------------------------------------------------------------------|

------------------12--12--12----------------------------------------12-14-|
--10-10h12p10-14~---14--14--14-12h14p12------------------------12-14------|
--------------------------------------14-11-11\9---------9h11\13----------|
-------------------------------------------------11-9-9h11----------------|
--------------------------------------------------------------------------|
--------------------------------------------------------------------------|
Tap to rate this tab
 
# A B C D E F G H I J K L M N O P Q R S T U V W X Y Z