Song name
# A B C D E F G H I J K L M N O P Q R S T U V W X Y Z

Bad Brains - Pay To Cum tab

Band: Bad Brains
Song: Pay To Cum
e-mail: iamtheowl133@aol.com

Standard Tuning
Distortion throughout

intro and main riff
e|--------------------|
b|--------------------|
g|----7-7-7-7-7-9-----|
d|----7-7-7-7-7-9-7---|
a|----5-5-5-5-5-7-7---|
E|----------------5---|

verse
|-----------------|
|-----------------|
|-----------------|
|---5----5----5---|
|---5----5----5---|
|---3----3----3---|

chorus
|-----------------| x3
|-----------------|
|-----------7-4---|
|---5--4--2-7-4---|
|---5--4--2-5-2---|
|---3--2--0-------|

|---------------------------|
|---------------------------|
|-----------7-4-7-4-7---9---|
|---5--4--2-7-4-7-4-7-7-9---|
|---5--4--2-5-2-5-2-5-7-7---|
|---3--2--0-----------5-----|
Tap to rate this tab
 
# A B C D E F G H I J K L M N O P Q R S T U V W X Y Z