Song name
# A B C D E F G H I J K L M N O P Q R S T U V W X Y Z

Bad Company - Gone Gone Gone tab

-----------------------------------------------------------------------------
                                  
                Gone, gone, gone  - Bad Company (GUITAR)
            
-----------------------------------------------------------------------------
Tabbed by: Scotto10

Tuning: Standard

Sorry, it's not the entire song but I have too much going on in my life to tab 
out all the solos now. for a couple of years I would sit and tab for days on a 
solo until I got on "paper" but I just don't have time for that now. Hop 
someone can enjoy this anyway.

=============================================================================

                                                         
Guitar



               PM PM PM                 PM PM PM                 PM PM PM       
     Q    Q    E  E  E  E     Q    Q    E  E  E  E     Q    Q    E  E  E    E   
E||------------------------|------------------------|--------------------------|
B||------------------------|------------------------|--------------------------|
G||-------2----------------|-------2----------------|-------2------------------|
D||--5----2-------------5--|--L----2-------------5--|--L----2-------------4g5--|
A||--5------------------5--|--L------------------5--|--L------------------4g5--|
E||------------0--0--0-----|------------0--0--0-----|------------0--0--0-------|


            PM PM PM                                              
  Q    Q    E  E  E  E     W                   H        H         
------------------------|-------------------|--------------------|
------------------------|-------------------|--------------------|
-------2----------------|--9----------------|--------------------|
--L----2----------------|--9----------------|--L-----------------|
--L---------------------|--7----------------|--L-----------------|
------------0--0--0--0--|--0----------------|--L--------L--------|


            PM PM PM                   PM PM PM                         
  Q    Q    E  E  E    E     Q    Q    E  E  E  E     W                 
--------------------------|------------------------|-------------------|
--------------------------|------------------------|-------------------|
-------2------------------|-------2----------------|--9----------------|
--5----2-------------4g5--|--L----2----------------|--9----------------|
--5------------------4g5--|--L---------------------|--7----------------|
------------0--0--0-------|------------0--0--0--0--|--0----------------|


                                 PM PM PM                   PM PM         
  H        H           Q    Q    E  E  E    E     Q    Q    E  E  E   E   
--------------------|--------------------------|-------------------------|
--------------------|--------------------------|-------------------------|
--------------------|-------2------------------|-------2--------------2--|
--L-----------------|--5----2-------------4g5--|--L----2--------------2--|
--L-----------------|--5------------------4g5--|--L-------------------0--|
--L--------L--------|------------0--0--0-------|------------0--0--3b-----|


  W                   W                   W                   W                 
-------------------|-------------------|-------------------|-------------------|
-------------------|-------------------|-------------------|-------------------|
--L----------------|--L----------------|--5----------------|--L----------------|
--L----------------|--L----------------|--5----------------|--L----------------|
--L----------------|--L----------------|--3----------------|--L----------------|
-------------------|-------------------|--3----------------|--L----------------|


  W                   W                   Q    Q    E   E  Q     
-------------------|-------------------|-------0-----------0----|
-------------------|-------------------|-------0-----------0----|
-------------------|--4----------------|--1----------------2----|
--4----------------|--4----------------|--2---------2s--4-------|
--4----------------|--2----------------|------------------------|
--2----------------|--2----------------|--0---------------------|


  E   E  Q    E   E  Q       Q.     H        E     W                 
---------0-----------0----|--0------2--------3--|--L----------------|
---------0-----------0----|--1------3--------5--|--L----------------|
---------3-----------4----|--0------2--------4--|--L----------------|
--4s--5-------5s--6-------|--2------4--------5--|--L----------------|
--------------------------|--0------2--------3--|--L----------------|
--------------------------|---------------------|-------------------|


  W                   W                   Q.     H        E   
--2----------------|--2----------------|--0------2--------3--|
--2----------------|--2----------------|--1------3--------5--|
--2----------------|--4----------------|--0------2--------4--|
--4----------------|--4----------------|--2------4--------5--|
--4----------------|--2----------------|--0------2--------3--|
--2----------------|-------------------|---------------------|


  W                   W                   W                 
--L----------------|--2----------------|--2----------------|
--L----------------|--2----------------|--2----------------|
--L----------------|--2----------------|--4----------------|
--L----------------|--4----------------|--4----------------|
--L----------------|--4----------------|--2----------------|
-------------------|--2----------------|-------------------|


            PM PM PM                   PM PM PM       
  Q    Q    E  E  E    E     Q    Q    E  E  E    E   
--------------------------|--------------------------|
--------------------------|--------------------------|
-------2------------------|-------2------------------|
--5----2-------------4g5--|--L----2-------------4g5--|
--5------------------4g5--|--L------------------4g5--|
------------0--0--0-------|------------0--0--0-------|


            PM PM PM                   PM PM PM                         
  Q    Q    E  E  E    E     Q    Q    E  E  E  E     W                 
--------------------------|------------------------|-------------------|
--------------------------|------------------------|-------------------|
-------2------------------|-------2----------------|--9----------------|
--L----2-------------4g5--|--L----2----------------|--9----------------|
--L------------------4g5--|--L---------------------|--7----------------|
------------0--0--0-------|------------0--0--0--0--|--0----------------|


                                 PM PM PM                   PM PM PM     
  H        H           Q    Q    E  E  E    E     Q    Q    E  E  E  E   
--------------------|--------------------------|------------------------|
--------------------|--------------------------|------------------------|
--------------------|-------2------------------|-------2----------------|
--L-----------------|--5----2-------------4g5--|--L----2----------------|
--L-----------------|--5------------------4g5--|--L---------------------|
--L--------L--------|------------0--0--0-------|------------0--0--0--0--|


                                                     PM PM PM       
  W                   H        H           Q    Q    E  E  E    E   
-------------------|--------------------|--------------------------|
-------------------|--------------------|--------------------------|
--9----------------|--------------------|-------2------------------|
--9----------------|--L-----------------|--5----2-------------4g5--|
--7----------------|--L-----------------|--5------------------4g5--|
--0----------------|--L--------L--------|------------0--0--0-------|


            PM PM PM                                              
  Q    Q    E  E  E  E     W                   H        H         
------------------------|-------------------|--------------------|
------------------------|-------------------|--------------------|
-------2----------------|--9----------------|--------------------|
--L----2----------------|--9----------------|--L-----------------|
--L---------------------|--7----------------|--L-----------------|
------------0--0--0--0--|--0----------------|--L--------L--------|


            PM PM PM                   PM PM PM                         
  Q    Q    E  E  E    E     Q    Q    E  E  E  E     W                 
--------------------------|------------------------|-------------------|
--------------------------|------------------------|-------------------|
-------2------------------|-------2----------------|--9----------------|
--5----2-------------4g5--|--L----2----------------|--9----------------|
--5------------------4g5--|--L---------------------|--7----------------|
------------0--0--0-------|------------0--0--0--0--|--0----------------|


                                 PM PM PM                   PM PM         
  H        H           Q    Q    E  E  E    E     Q    Q    E  E  E   E   
--------------------|--------------------------|-------------------------|
--------------------|--------------------------|-------------------------|
--------------------|-------2------------------|-------2--------------2--|
--L-----------------|--5----2-------------4g5--|--L----2--------------2--|
--L-----------------|--5------------------4g5--|--L-------------------0--|
--L--------L--------|------------0--0--0-------|------------0--0--3b-----|


  W                   W                   W                   W                 
-------------------|-------------------|-------------------|-------------------|
-------------------|-------------------|-------------------|-------------------|
--L----------------|--L----------------|--5----------------|--L----------------|
--L----------------|--L----------------|--5----------------|--L----------------|
--L----------------|--L----------------|--3----------------|--L----------------|
-------------------|-------------------|--3----------------|--L----------------|


  W                   W                   Q    Q    E   E  Q     
-------------------|-------------------|-------0-----------0----|
-------------------|-------------------|-------0-----------0----|
-------------------|--4----------------|------------------------|
--4----------------|--4----------------|------------2s--4-------|
--4----------------|--2----------------|------------------------|
--2----------------|--2----------------|--0---------------------|


  E   E  Q    E   E  Q       Q.     H        E     W                 
---------0-----------0----|--0------2--------3--|--L----------------|
---------0-----------0----|--1------3--------5--|--L----------------|
--------------------------|--0------2--------4--|--L----------------|
--4s--5-------5s--6-------|--2------4--------5--|--L----------------|
--------------------------|--0------2--------3--|--L----------------|
--------------------------|---------------------|-------------------|


  W                   W                   Q.     H        E   
--2----------------|--2----------------|--0------2--------3--|
--2----------------|--2----------------|--1------3--------5--|
--2----------------|--4----------------|--0------2--------4--|
--4----------------|--4----------------|--2------4--------5--|
--4----------------|--2----------------|--0------2--------3--|
--2----------------|-------------------|---------------------|


  W                   W                   W                 
--L----------------|--2----------------|--2----------------|
--L----------------|--2----------------|--2----------------|
--L----------------|--2----------------|--4----------------|
--L----------------|--4----------------|--4----------------|
--L----------------|--4----------------|--2----------------|
-------------------|--2----------------|-------------------|


  W                  
-------------------||
-------------------||
-------------------||
-------------------||
-------------------||
--0----------------||




Duration Legend
---------------
W - whole
H - half
Q - quarter
E - 8th
S - 16th
T - 32nd
X - 64th
. - note dotted
|-n-|  - n-tuplets


Tablature Legend
----------------
L - tied note
x - dead note
g - grace note
(n) - ghost note
> - accentuded note
NH - natural harmonic
AH - artificial harmonic
TH - tapped harmonic
SH - semi harmonic
PH - pitch harmonic
h - hammer on
p - pull off
b - bend
br - bendRelease
pb - preBend
pbr - preBendRelease
brb - bendReleaseBend
\n/ - tremolo bar dip
\n - tremolo bar dive
-/n - tremolo bar Release up
/n\ - tremolo bar inverted dip
/n - tremolo bar return
-\n - tremolo bar Release down
S - shift slide
s - legato slide
/ -  slide into from below or out of upwards
\ -  slide into from above or out of downwards
~ - vibrato
W - wide vibrato
tr - trill
TP - tremolo picking
T - tapping
S - slap
P - pop
< - fade in
^ - brush up
v - brush down
Tap to rate this tab
# A B C D E F G H I J K L M N O P Q R S T U V W X Y Z