Song name
# A B C D E F G H I J K L M N O P Q R S T U V W X Y Z

Bad English - Time Stood Still tab

Time stood still intro: transcribed by Rob

 -2-0----- 2--2-0-------0-----0--(23)3-2-0-------------2------------------|
 -0--3-2-3-2--0--3-2-3--0----1-1----------3-2-0--------2------------------|
 ----------3------------4--------------------------4---3------------------|
 ----------4------------2-------------------------2-2--4------------------|
 -2-(2)-------0-(0)-----2---3--------------------2---2--------------------|
 -----------------------4-----------------------4-------------------------|

 -2-0------2--2-0-------0-----0--(23)3--------4-5/7----8-7-5-4---------|
 -0--3-2-3-2--0--3-2-3--0----1-1-----0-------5-5-------5-5-2-5---------|
 ----------3------------4------------0-----------------5-7-4-4---------|
 ----------4------------2---------------1/2-(2)--------5-5-2-2---------|
 -2-(2)-------0-(0)-----2---3------------------------------------------|
 -----------------------4----------------------------------------------|

                             OR
 -------4-5/7--8-7-5-4------------------------7---8-7-5-4---------------|
 ------5-5-----5-5-2-5-------------------9--10----5-5-2-5---------------|
 --------------5-7-4-4------------------9-9-------5-7-4-4---------------|
 -1/2-(2)------5-5-2-2----------------------------5-5-2-2---------------|
 ---------------------------------6/7--(7)------------------------------|
 -----------------------------------------------------------------------|
Tap to rate this tab
 
# A B C D E F G H I J K L M N O P Q R S T U V W X Y Z