Song name
# A B C D E F G H I J K L M N O P Q R S T U V W X Y Z

Bad Religion - When tab

Intro/Verse

e|--------------------------------------------------------------------------|
B|--------------------------------------------------------------------------|
G|-777-55-77-----101010-----------------------------------------------------|
D|-777-55-77-888--8-8-8--101010---------------------------------------------|
A|-555-33-55-888--8-8-8---8-8-8---------------------------------------------|
E|-----------666----------8-8-8---------------------------------------------|

Pre Chorus

e|--------------------------------------------------------------------------|
B|--------------------------------------------------------------------------|
G|-777-555-333-222----------------------------------------------------------|
D|-777-555-333-222-555-33-2-------------------------------------------------|
A|-555-333-111-000-555-33-2-------------------------------------------------|
E|-----------------333-11-0-------------------------------------------------|

Interlude

e|--------------------------------------------------------------------------|
B|--------------------------------------------------------------------------|
G|-777-55-77-777-55-77-777-55-77-777-55-77----------------------------------|
D|-777-55-77-777-55-77-777-55-77-777-55-77----------------------------------|
A|-555-33-55-555-33-55-555-33-55-555-33-55----------------------------------|
E|--------------------------------------------------------------------------|

Chorus

e|--------------------------------------------------------------------------|
B|--------------------------------------------------------------------------|
G|---------777-55-77--------------------------------------------------------|
D|-333-555-777-55-77--333-555-77777777--------------------------------------|
A|-333-555-555-33-55--333-555-77777777--------------------------------------|
E|-111-333------------111-333-55555555--------------------------------------|

Post-chorus

e|--------------------------------------------------------------------------|
B|--------------------------------------------------------------------------|
G|--------------5----------------5------------------------------------------|
D|-777777777777-5-5-777777777777-5-5----------------------------------------|
A|-777777777777-3-5-777777777777-3-5----------------------------------------|
E|-555555555555---3-555555555555---3----------------------------------------|
Tap to rate this tab
# A B C D E F G H I J K L M N O P Q R S T U V W X Y Z