Song name
# A B C D E F G H I J K L M N O P Q R S T U V W X Y Z

Bad Religion - Los Angeles Is Burning tab

Artist: Bad Religion
Album: The Empire Strikes First
Song: Los Angeles is Burning
Tabbed by: amerikanshadowhawk@yahoo.com

Tuning: Standard

This isn't completely accurate, but all the other tabs I've seen had terribly inaccurate 
in the solo.

And yes, this tab doesn't cover every single note the other guitarists are playing.  I'm 
smart enough to do that.

Intro (Played 4 times)

e|-----------------------------------------------------|
B|-----------------------------------------------------|
G|-----------------10------------------10--------------|
D|--10-10-10-10-10-10---10-10-10-10-10-10--------------|
A|--10-10-10-10-10--8---10-10-10-10-10--8--------------|
E|---8--8--8--8--8-------8--8--8--8--8-----------------|

This bit comes after the intro (every time it is played)

e|--------------------------------------|
B|--------------------------------------|
G|--------------------------------------|
D|--10-10-10-10-10----------------------|
A|--10-10-10-10-10----------------------|
E|---8--8--8--8--8----------------------|


Verse (Played a couple times)

e|-------------------------------------------------------------------------|
B|-------------------------------------------------------------------------|
G|--5--5-5-5-5-5-5-----5--5-5-5----------5-5-5-5---------------------------|
D|--5--5-5-5-5-5-5-3-3-5--5-5-5--7-7-7-7-5-5-5-5-5-5-5-5-5-5-5-5-----------|
A|--3--3-3-3-3-3-3-3-3-3--3-3-3--7-7-7-7-3-3-3-3-5-5-5-5-5-5-5-5-----------|
E|-----------------1-1-----------5-5-5-5---------3-3-3-3-3-3-3-3-----------|

e|-------------------------------------------------------------------------|
B|-------------------------------------------------------------------------|
G|--5--5-5-5-5-5-5-----5--5-5-5--------------------------------------------|
D|--5--5-5-5-5-5-5-3-3-5--5-5-5--7-7-7-7-7-7-7-7-5-5-5-5-5-5-5-5-----------|
A|--3--3-3-3-3-3-3-3-3-3--3-3-3--7-7-7-7-7-7-7-7-5-5-5-5-5-5-5-5-----------|
E|-----------------1-1-----------5-5-5-5-5-5-5-5-3-3-3-3-3-3-3-3-----------|


Prechorus

e|-----------------------------------------------------|
B|-----------------------------------------------------|
G|-----------------10------------------10--------------|
D|--10-10-10-10-10-10---10-10-10-10-10-10--------------|
A|--10-10-10-10-10--8---10-10-10-10-10--8--------------|
E|---8--8--8--8--8-------8--8--8--8--8-----------------|

e|--------------------------------------|
B|--------------------------------------|
G|--------------------------------------|
D|--10-10-10-10-10----------------------|
A|--10-10-10-10-10----------------------|
E|---8--8--8--8--8----------------------|


Chorus (Part 1, played twice)

e|-------------------------------------------------------------------------|
B|-------------------------------------------------------------------------|
G|-------------------------------------------------------------------------|
D|--7-7-7-7-7--5-5-5-5-5--3-3-3-3-3----------------------------------------|
A|--7-7-7-7-7--5-5-5-5-5--3-3-3-3-3----------------------------------------|
E|--5-5-5-5-5--3-3-3-3-3--1-1-1-1-1----------------------------------------|

After this part I'm not quite sure what it is, but it may be this:

e|----------------------------------------------|
B|--5-3-----------------------------------------|
G|------5-4-5-4---------------------------------|
D|--------------7-5-7---------------------------|
A|----------------------------------------------|
E|----------------------------------------------|


Chorus (Part 2)

So many lives on the breeze, etc.
e|-------------------------------------------------------------------------|
B|-------------------------------------------------------------------------|
G|-------------------------------------------------------------------------|
D|--7-7-7-7-7-7-7-7-2-2-2-2-2-2-2-2-7-7-7-7-7-7-7-7-3-3-3-3-3-3-3-3--------|
A|--7-7-7-7-7-7-7-7-2-2-2-2-2-2-2-2-7-7-7-7-7-7-7-7-3-3-3-3-3-3-3-3--------|
E|--5-5-5-5-5-5-5-5-0-0-0-0-0-0-0-0-5-5-5-5-5-5-5-5-1-1-1-1-1-1-1-1--------|

e|-------------------------------------------------------|
B|-------------------------------------------------------|
G|-------------------------------------------------------|
D|--7-7-7-7-7-7-7-7-5-5-5-5-5-5-5-5----------------------|
A|--7-7-7-7-7-7-7-7-5-5-5-5-5-5-5-5----------------------|
E|--5-5-5-5-5-5-5-5-3-3-3-3-3-3-3-3----------------------|

Intro x3
Verse x(something)
Prechorus
Chorus
Intro (again)


Bridge

e|------------------1-1-1-1-1-1-1-1--------------------|
B|------------------1-1-1-1-1-1-1-1--------------------|
G|------------------1-1-1-1-1-1-1-1-5-5-5-5-5-5-5-5----|
D|--3-3-3-3-3-3-3-3-3-3-3-3-3-3-3-3-5-5-5-5-5-5-5-5----|
A|--3-3-3-3-3-3-3-3-3-3-3-3-3-3-3-3-3-3-3-3-3-3-3-3----|
E|--1-1-1-1-1-1-1-1-1-1-1-1-1-1-1-1--------------------|


e|---------------------------------------------------|
B|---------------------------------------------------|
G|---------------------------------------------------|
D|--3-3-3-3-3-3-3-3-5-5-5-5-5-5-5-5-7-7-7-7-7-7-7-7--|
A|--3-3-3-3-3-3-3-3-5-5-5-5-5-5-5-5-7-7-7-7-7-7-7-7--|
E|--1-1-1-1-1-1-1-1-3-3-3-3-3-3-3-3-5-5-5-5-5-5-5-5--|

(More a question than a curse, etc.)
e|------------------------------------------------|
B|------------------------------------------------|
G|------------5-----------------------------------|
D|--3----5----5--5--7-----------------------------|
A|--3----5----3--5--7-----------------------------|
E|--1----3-------3--5-----------------------------|

e|--------------------------------------|
B|--------------------------------------|
G|--------------------------------------|
D|--3-3-3-3-3-3-3-3--5-5-5-5-5-5-5-5----|
A|--3-3-3-3-3-3-3-3--5-5-5-5-5-5-5-5----|
E|--1-1-1-1-1-1-1-1--3-3-3-3-3-3-3-3----|


Solo (I'm not too sure of this)

e|-------------------------------------------------------------------------|
B|-------------8-8---8h10-10-10--8h10-10---10h13-13--13/15-15-15-----------|
G|-----9-9---9-------------------------------------------------------------|
D|--10---------------------------------------------------------------------|
A|-------------------------------------------------------------------------|
E|-------------------------------------------------------------------------|

e|-------------------------------------------------------------------------|
B|--15h17-17--17p15-15--15p13-13--10-8--10-8-8-----------------------------|
G|---------------------------------------------9-7-9-7-7h9-7h9-------------|
D|-------------------------------------------------------------------------|
A|-------------------------------------------------------------------------|
E|-------------------------------------------------------------------------|

e|---------------------------------------------------|
B|--13~----17~--15~---20~----------------------------|
G|---------------------------------------------------|
D|---------------------------------------------------|
A|---------------------------------------------------|
E|---------------------------------------------------|


Chorus
Intro x2


This tab might be more correct than the others you've viewed.  Hope it helped.
Tap to rate this tab
# A B C D E F G H I J K L M N O P Q R S T U V W X Y Z