Song name
# A B C D E F G H I J K L M N O P Q R S T U V W X Y Z

Bad Religion - Change Of Ideas tab

Help us improve GuitareTab! Take a short survey!
Riff 1:

E|--------------------------------|
B|--------------------------------|
G|--------------------------------|
D|--------------------------------|
A|----7-7-7-----9-9-9-----7-7-7---|
E|7-5-------7-5-------7-5-------7-|

E|--------------------------------|
B|--------------------------------|
G|--------------------------------|
D|--------------------------------|
A|--9-9-9-----7-7-7-----9-9-9-----|
E|5-------7-5-------7-5-------7-5-|

E|--------------------------------|
B|--------------------------------|
G|--------------------------------|
D|--------------------------------|
A|7-7-7-----9-9-9-----------------|
E|------7-5-----------------------|


Riff 2:

E|--------------------------------|
B|--------------------------------|
G|--------------------------------|
D|--------------------------------|
A|9-9-9-9-----7-7-9-9-9-9-----7-7-|
E|--------9-9-------------9-9-----|

E|--------------------------------|
B|--------------------------------|
G|--------------------------------|
D|--------------------------------|
A|9-9-9-9-----7-7-9-9-9-9-----7-7-|
E|--------9-9-------------9-9-----|

E|--------------------------------|
B|--------------------------------|
G|--------------------------------|
D|--------------------------------|
A|9-9-9-9-----7-7-----------------|
E|--------9-9---------------------|


Riff 3:

E|--------------------------------|
B|--------------------------------|
G|--------------------------------|
D|--------------------------------|
A|--------7-7-9-9---------8-8-9-9-|
E|9-9-7-7---------8-8-7-7---------|

E|--------------------------------|
B|--------------------------------|
G|--------------------------------|
D|--------------------------------|
A|9-9-----7-7-9-9---------8-8-9-9-|
E|----9-9---------8-8-7-7---------|

E|--------------------------------|
B|--------------------------------|
G|--------------------------------|
D|--------------------------------|
A|9-9-----7-7-9-9---------8-8-9-9-|
E|----9-9---------8-8-7-7---------|

E|--------------------------------|
B|--------------------------------|
G|--------------------------------|
D|--------------------------------|
A|--------7-7-9-9-----------------|
E|9-9-7-7-------------------------|
Related for Change Of Ideas tab