Song name
# A B C D E F G H I J K L M N O P Q R S T U V W X Y Z

Ballboy - I Lost You But I Found Country Music tab

Thanks to Fretdontfret for inspiring me to post my first tab.  This one is slightly 
easier (as long as you have a capo!).
Notes tabbed in relation to the capo.

-------------------------------------------------------------------------------
                             I Lost You But I Found Country Music - Ballboy
-------------------------------------------------------------------------------
Tabbed by: Camp Freddy
Email:

Tuning: Standard, Capo first fret

e|---------------------------------------------------------------------------|
B|-----------1--------------1------------0----------1-------1----------------|
G|---------------------------------0-----------------------------------------|
D|------------------3--------------------------3-------3---------------------|
A|----3----------------------------------------------------------------------|
E|---------------------------------------------------------------------------|
Tap to rate this tab
# A B C D E F G H I J K L M N O P Q R S T U V W X Y Z