Song name
# A B C D E F G H I J K L M N O P Q R S T U V W X Y Z

Balzac - Dark tab

Help us improve GuitareTab! Take a short survey!
sup everybody this is stiffius maximus writtinng another tab for an amazing song. it's 
very difficult but definetly not for noobs. Enjoy.


                                  x8
|----------------------------------|
|----------------------------------|
|----------------------------------|
|----------------------------------|
|-10-(x16)-5-(x16)-7-(x16)-3-(x16)-|
|-8--------3-------5-------1-------|

            x16
|-------------|
|-------------|
|-------------|
|-------------|
|-2-3-2--5-43-|
|-0-1-0--3-21-|

             x8
|-------------|
|-------------|
|-------------|
|-------------|
|-2-3-2--5-43-|
|-0-1-0--3-21-|

                                  x2
|----------------------------------|
|----------------------------------|
|----------------------------------|
|----------------------------------|
|-10-(x16)-5-(x16)-7-(x16)-3-(x16)-|
|-8--------3-------5-------1-------|

|-------------------------|
|-11-11-14~---11-11-15~-14|
|-------------------------|
|-------------------------|
|-------------------------|
|-------------------------|

             x8
|-------------|
|-------------|
|-------------|
|-------------|
|-2-3-2--5-43-|
|-0-1-0--3-21-|

                                  x4
|----------------------------------|
|----------------------------------|
|----------------------------------|
|----------------------------------|
|-10-(x16)-5-(x16)-7-(x16)-3-(x16)-|
|-8--------3-------5-------1-------|

solo
|---------------------------------------------|
|--------999-777-555-333-1-3-5~-3~-3-5-6-8-8b-|
|---------------------------------------------|
|---------------------------------------------|
|10-(x16)-------------------------------------|
|8--------------------------------------------|

             x8
|-------------|
|-------------|
|-------------|
|-------------|
|-2-3-2--5-43-|
|-0-1-0--3-21-|
Related for Dark tab