Guitaretab - guitar tabs
Song name
# A B C D E F G H I J K L M N O P Q R S T U V W X Y Z

Bamboo - So Far Away tab

Song: So Far Away
Artist: Bamboo
Album: We Stand Alone Together
Tabbed by: Lhord Borces
	   rastafaris_lhord@yahoo.com

Legend
-------------------------
|   h  = hammer up
|   p  = pull up
|   ~  = vibrato
    /  = slide up
    \  = slide down
-------------------------


Solo (1:48)
e|-------------------------------------------------------------|
B|------------------------------------------------10-9-9/14----|
G|--------------------------6/9-6~--6/12\6---9h11--------------|
D|----------------7-6-7-7/9------------------------------------|
A|---11p12~--7h9-----------------------------------------------|
E|-------------------------------------------------------------|
   NOTE: Listen to the music for great results.


e|---------------------------------14~-14~-12~-----------------|
B|---------10-9-9/14---17-12-10--------------------------------|
G|----9h11-----------------------------------------------------|
D|-------------------------------------------------------------|
A|-------------------------------------------------------------|
E|-------------------------------------------------------------|

[ Tab from: http://www.guitaretab.com/b/bamboo/152832.html ]
Outro (3:29)
e|--------------------------------------------------------------|
B|--------------------10----9~---10-12-12-12/14-10---12/14-12---|
G|---------6/9---9h11----11-------------------------------------|
D|-----7-6------------------------------------------------------|
A|---7----------------------------------------------------------|
E|--------------------------------------------------------------|


e|-------------------------------------------------------------|
B|---15h17-15p14-12~---17/19-17---10h12-10---------------------|
G|-----------------------------------------9/11-9---14-13------|
D|-------------------------------------------------------------|
A|-------------------------------------------------------------|
E|-------------------------------------------------------------|


e|-------------------------------------------------|
B|---15/17-14---14h13-14--12/14-12--16/19-17-------|
G|-------------------------------------------------|
D|-------------------------------------------------|
A|-------------------------------------------------|
E|-------------------------------------------------|

I hope you'll like it...
ENJOY!!!...

[Rastahflip D' Arsonist]


Related for So Far Away tab
So Far Away chords by Bamboo