Guitaretab - guitar tabs
Song name
# A B C D E F G H I J K L M N O P Q R S T U V W X Y Z

Bamboo - 50 Ways To Leave Your Lover tab

Song         : 50 Ways To Leave Your Lover
Band         : Bamboo
Tabbed by    : Brandon Philip Llapitan
E add/Cp no. : brandon_rakista@yahoo.com/09064856396
Tuning       : Standard


98% correct!

Solo : (03:01-03:36)

e-----------------------------------------------------|
b--------------------------------------6--------------|
g-----------------------------------/7---3h5-3--------|
d-8-8-5/----------5-8-5/---8-8-5/--------------5p3-5/-|
a----------8-8-10-------------------------------------|
E-----------------------------------------------------|
           .

e-----------------------------------------------------------|
b-----------------------------------------------------------|
g-------------------------------------------------------3---|
d-10h12-8-------------------------------------------------5-|
a---------10-8-10-10--5-8p5-3-1-3-1-3h5-1--------------1----|
E-----------------------------------------3----1-3p1-3------|
                      .
[ Tab from: http://www.guitaretab.com/b/bamboo/153149.html ]
e-------------------------------------------------------------------------------|
b-----6/8-------------------------6/8-------------------------6/8---------------|
g-5/7-----7-5-0-3p0-3/5---5/7-7-7-----7-5-0-3p0-3/5---5/7-7-7-----7-5-0-3p0-3/5-|
d-------------------------------------------------------------------------------|
a-------------------------------------------------------------------------------|
E-------------------------------------------------------------------------------|

e-----------------------------------------------------------------------------------|
b---------8-------8-------8-------8--------8------8-------8-------------------------|
g-10b12-----10b12---10b12---10b12---10b12---10b12---10b12---10b12--5b7r5-3--5b7r5-3-|
d-----------------------------------------------------------------------------------|
a-----------------------------------------------------------------------------------|
E-----------------------------------------------------------------------------------|
                                          |--------fast part-----|

e------------------------------------------------------|
b-----11-13-13b15-11-13-11-13--13b15-11-13-11----------|
g-/12-----------------------------------------12/10-12-|
d------------------------------------------------------|
a------------------------------------------------------|
E------------------------------------------------------|

e-13b15---------------------------------------------------------------|
b-------15-14-13--11-13-13b15--11-13--11-11-13-15--11-13-11-----------|
g-----------------------------------------------------------12-10-12~-|
d---------------------------------------------------------------------|
a---------------------------------------------------------------------|
E---------------------------------------------------------------------|

Guitar legend : 

/ = slide
. = palm mute
h = hammer 
p = pull
b = bend 
r = release
~ = vibrato 
Related for 50 Ways To Leave Your Lover tab
Advertisement will be closed in 10 seconds