Song name
# A B C D E F G H I J K L M N O P Q R S T U V W X Y Z

Bamboo - Noypi chords

Highlighted       Show chord diagrams
noypi-bamboo

tabbed by: jonathan maramag
from: Urdaneta city
intro:D-A-C-G

e|---------------------------------|
B|---------------------------------|
G|---6h7---7-5---4h5---------------|
D|--7----7-----5-----5-------------|
A|-5------------------5/7----------|
E|---------------------------------|

        
       -->D-A-C-G 
        Tingnan mo iyong palad
	Kalyado mong kamay sa hirap ng buhay
	Ang dami mong problema, nakuha mo pang ngumiti
	Noypi ka nga, astig


	REFRAIN 1 -->D-A-C-G
	Saan ka man naroroon 'wag kang matatakot
	Sa baril o patalim, sa bakas na madilim


	CHORUS -->D-A-C-G 
	Hoy, Pinoy ako
	Buo aking loob
	May agimat ang dugo ko
	Hoy, oh, Pinoy ako
	agimat ang dugo ko


        -->D-A-C-G
	Sinisid ko ang dagat, nalibot ko ang mundo
	Nasa puso ko pala hinahanap kong kulo
	Ilang beses na akong muntikang mamatay
	Oh, alam ko ang sikreto kaya't nandito pa't buhay


	REFRAIN 2 -->D-A-C-G  
	Oh, sabi nila may anting-anting ako
	Pero 'di nila alam na ang Diyos ang dahilan ko


	[Repeat CHORUS]
	
        -->D-A-C-G
        Hoh hoh hoo hoh  
	Hoh hoh hoo hoh


	AD LIB (bass)
        e|---------------------------------------------------|
        B|---------------------------------------------------|
        G|---------------------------------------------------|
        D|---------------------------------------------------|
        A|-5-5-5-5-5-5-5-------------3-3-3-3-3-3-------------|
        E|--------------5-5-5-5-5-5--------------3-3-3-3-3-3-|
       
        
        -->D-A-C-G  
	Dinig mo ba ang bulong ng lahi mo 
	Isigaw mo, kapatid, ang himig natin


	[Repeat CHORUS]

        -->D-A-C-G
	Hoh hoh hoo hoh
	Hoh hoh hoo hoh


sorry hindi ko alam ung lead nxt tym nlng un pa like nalang kung nagustuhan nyo tnx....
Tap to rate this tab
 
# A B C D E F G H I J K L M N O P Q R S T U V W X Y Z