Song name
# A B C D E F G H I J K L M N O P Q R S T U V W X Y Z

Bamboo - These Days tab

mga belivers tama to 100% pakingan ninyo and cd for timing BASTA TAMA TO PROMISE!
PAKI RATE DIN PLZZZ....

|----------------------------------------------------------|
|----------------------------------------------------------|
|--3/4-3/4-3/4-3/4-----------------------------------------|
|------------------5-4h5-6\5-5--3--------------------------|
|----------------------------5--5-5-4-3/1------------------|
|-----------------------------------------3----------------|

|----------------------------------6-5--------------------------|
|----------------------6-5--5-6-8------6/8--8-10-10b----10--8---|
|--3/4-3/4-3/4-3/4---7-----7---------------9-----------9--9-----|
|------------------5--------------------------------------------|
|---------------------------------------------------------------|
|---------------------------------------------------------------|

|-------------------3--------------------------------------------|
|------13-14-15-----3--6-5-3-------------------------------------|
|--14b----------12--4--------5-5b-3-------3----------------------|
|-----------------------------------5-3h5---5-5-3----------------|
|-------------------------------------------------5-4-3/1--------|
|---------------------------------------------------------3------|


ASTEEG BA ?! WLANG MALI DYAN PROMISE! EMAIL ME SA REACTIONS NYO
louie_ccf@yahoo.com
Tap to rate this tab
# A B C D E F G H I J K L M N O P Q R S T U V W X Y Z