Song name
# A B C D E F G H I J K L M N O P Q R S T U V W X Y Z

Bananarama - Venus tab

This is Venus By Bananarama
Good song to play
If you got any questions just email me at Sk8erman33@yahoo.com


E-----0-0-0-0-0-0-0-0-0----|-----------------|
B-----2-2-2-2-2-2-2-2-2----|-----------------|
G-----1-1-1-1-1-1-1-1-1----|-----------------|
D-----2-2-2-2-2-2-2-2-2----|-----------------|
A-----0-0-0-0-0-0-0-0-0----|-----------------|
E-----2-2-2-2-2-2-2-2-2----|--10-/-1---------|

E---0-0-0-----0-0-0------|---0-0-0-----0-0-0-----|--0-0-0------2-2-2------|--0-0-0------2-2-2------|
B---0-0-0--0--2-2-2---0--|---0-0-0--0--2-2-2---0-|--1-1-1--0---3-3-3---0--|--1-1-1--0---3-3-3---0--|
G---0-0-0--0--2-2-2---0--|---0-0-0--0--2-2-2---0-|--2-2-2--0---2-2-2---0--|--2-2-2--0---2-2-2---0--|
D---2-2-2--0--2-2-2---0--|---2-2-2--0--2-2-2---0-|--2-2-2--0---0-0-0---0--|--2-2-2--0---0-0-0---0--|
A---2-2-2-----0-0-0------|---2-2-2-----0-0-0-----|--0-0-0-----------------|--0-0-0-----------------|
E---0-0-0----------------|---0-0-0---------------|------------------------|------------------------|
Repeat Throught the Whole Song
Tap to rate this tab
# A B C D E F G H I J K L M N O P Q R S T U V W X Y Z