Song name
# A B C D E F G H I J K L M N O P Q R S T U V W X Y Z

Band Aid 20 - Do They Know Its Christmas tab

Band Aid 20 - Do they know its Christmas


The first fill is the one played after the phrase Do they know its Christmas. The solo
is played by two guitars but in different scale. The second guitar plays exactly the same
thing but in 5 semitones down. This part requires perfect timing. Towards the end there
are a lot of crazy guitar sounds and such with wah-wah, which you can play if you like.
Just improvise there.  


Fill
                                                             
E||--12----13--15----------17--|----15h-13h-15----12--------||
B||------------------13--------|----------------------------||
G||----------------------------|----------------------------||
D||----------------------------|----------------------------||
A||----------------------------|----------------------------||
E||----------------------------|----------------------------||


Solo

Guitar 1:
                                                    
E||--12----13--15----------17--|----15h-13h-15----------17--|
B||------------------13--------|------------------13--------|
G||----------------------------|----------------------------|
D||----------------------------|----------------------------|
A||----------------------------|----------------------------|
E||----------------------------|----------------------------|

Guitar 2:

E||--7-----8--10-----------12--|----10h-8h--10----------12--|
B||------------------8---------|-------------------8--------|
G||----------------------------|----------------------------|
D||----------------------------|----------------------------|
A||----------------------------|----------------------------|
E||----------------------------|----------------------------|




----20----15----12----13--|----12----10--------------||
--------------------------|----------------13--13----||
--------------------------|--------------------------||
--------------------------|--------------------------||
--------------------------|--------------------------||
--------------------------|--------------------------||
                                                  

----15--------------------|--------------------------||
----------15--------------|--------------------------||
----------------16----17--|----16----14----12--12----||
--------------------------|--------------------------||
--------------------------|--------------------------||
--------------------------|--------------------------||     


Enjoy.

Costantinos Papayiannis
Tap to rate this tab
 
# A B C D E F G H I J K L M N O P Q R S T U V W X Y Z