Song name
# A B C D E F G H I J K L M N O P Q R S T U V W X Y Z

Band Of Horses - The Funeral tab

-------------------------------------------------------------------------------
			     The Funeral - Band Of Horses
-------------------------------------------------------------------------------
Tabbed by: Scott C (my first tab)
Email: scottthatsme@gmail.com

Tuning: Standard

Intro: X8
e|-----11---\-----6---\-----1---/-----3-------3------------------------------|
B|---13--13-\---8---8-\---3---3-/---4---4---4---4----------------------------|
G|-13-------\-8-------\-3-------/-5-------5----------------------------------|
D|---------------------------------------------------------------------------|
A|---------------------------------------------------------------------------|
E|---------------------------------------------------------------------------|

Verse: 
X3
e|-11------6------1------3---------------------------------------------------|
B|-13------8------3------4---------------------------------------------------|
G|-13--X8--8--X8--3--X8--5--X16----------------------------------------------|
D|-13------8------3------5---------------------------------------------------|
A|-11------6------1------3---------------------------------------------------|
E|---------------------------------------------------------------------------|

X1
e|-11------6------1----------3-------3---------------------------------------|
B|-13------8------3--------4---4---4---4-------------------------------------|
G|-13--X8--8--X8--3--X8--5-------5-------------------------------------------|
D|-13------8------3----------------------------------------------------------|
A|-11------6------1----------------------------------------------------------|
E|---------------------------------------------------------------------------|

Chorus:
X4
e|-1-------6------4----------------------------------------------------------|
B|-3-------8------4----------------------------------------------------------|
G|-3--X16--8--X8--5--X24-----------------------------------------------------|
D|-3-------8------6----------------------------------------------------------|
A|-1-------6------6----------------------------------------------------------|
E|----------------4----------------------------------------------------------|

Intro:
X2
e|-----11---\-----6---\-----1---/-----3-------3------------------------------|
B|---13--13-\---8---8-\---3---3-/---4---4---4---4----------------------------|
G|-13-------\-8-------\-3-------/-5-------5----------------------------------|
D|---------------------------------------------------------------------------|
A|---------------------------------------------------------------------------|
E|---------------------------------------------------------------------------|

Verse:
X3
e|-11------6------1------3---------------------------------------------------|
B|-13------8------3------4---------------------------------------------------|
G|-13--X8--8--X8--3--X8--5--X16----------------------------------------------|
D|-13------8------3------5---------------------------------------------------|
A|-11------6------1------3---------------------------------------------------|
E|---------------------------------------------------------------------------|

X1
e|-11------6------1----------3-------3---------------------------------------|
B|-13------8------3--------4---4---4---4-------------------------------------|
G|-13--X8--8--X8--3--X8--5-------5-------------------------------------------|
D|-13------8------3----------------------------------------------------------|
A|-11------6------1----------------------------------------------------------|
E|---------------------------------------------------------------------------|

Chorus:
X4
e|-1-------6------4----------------------------------------------------------|
B|-3-------8------4----------------------------------------------------------|
G|-3--X16--8--X8--5--X24-----------------------------------------------------|
D|-3-------8------6----------------------------------------------------------|
A|-1-------6------6----------------------------------------------------------|
E|----------------4----------------------------------------------------------|

Ending:
X5
e|-11------6------1------3---------------------------------------------------|
B|-13------8------3------4---------------------------------------------------|
G|-13--X8--8--X8--3--X8--5--X8-----------------------------------------------|
D|-13------8------3------5---------------------------------------------------|
A|-11------6------1------3---------------------------------------------------|
E|---------------------------------------------------------------------------|



| /  slide up
| \  slide down
| h  hammer-on
| p  pull-off
| ~  vibrato
| +  harmonic
| x  Mute note
===============================================================================
Tap to rate this tab
 
# A B C D E F G H I J K L M N O P Q R S T U V W X Y Z