Song name
# A B C D E F G H I J K L M N O P Q R S T U V W X Y Z

Barathrum - Saatana tab

Help us improve GuitareTab! Take a short survey!
Barathrum - Saatana

Tabbed by Antsa (plug_spank@hotmail.com)

(0:00)
E---------------------------------------------|
B---------------------------------------------|
G---------------------------------------------|
D------------2--2-2---------------------------|
A-0--0-0-2-3--------3-2-0--0-0-2-3------------|
E----------------------------------3--3-3-0-0-|

E---------------------------------------|
B---------------------------------------|
G---------------------------------------|
D------------2--2-2---------------------|
A-0--0-0-2-3--------3-2-0-3-2-0-2---0---|
E---------------------------------3-----|

(0:24)
E---------------------------------------------------------|
B---------------------------------------------------------|
G--------4------------------------------------------------|
D-2------2-2222-5------4----------------------------------|
A-0-0000--------3-3333-2-2222-5------5------5------5------|
E-----------------------------3-3333-3-3333-3-3333-3-3333-|

(1:50)
E------------------------------------|
B------------------------------------|
G------------------------------------|
D------------------------------------|
A-3-2-0-2---3-2-0-2---3-2-0-2---0----|
E---------3---------3---------3------|

(2:12)
E------------------------------------|
B------------------------------------|
G------4-------7-6-7-------4---------|
D------2-------5-4-5-------2--7-6-7--|
A-----------------------------5-4-5--|
E-0000----0000--------0000-----------|

E---------------------|
B---------------------|
G------6--------------|
D-5555-4--2222-7-6-7--|
A--------------5-4-5--|
E---------------------|

(2:24)
E-------------------------------------------------------|
B-------------------------------------------------------|
G------4-----------------4-------7-6-------4------------|
D------2-------5-4-------2-------5-4-------2-------5-4--|
A--------------3-2---------------------------------3-2--|
E-0000----0000------0000----0000------0000----0000------|

E---------------------------|
B---------------------------|
G---------------------------|
D-4/5--5/7--7/9-9-11-11-12--|
A-2/3--3/5--5/7-7-9--9--10--|
E---------------------------|
Related for Saatana tab