Song name
# A B C D E F G H I J K L M N O P Q R S T U V W X Y Z

Barbra Streisand - The Way We Were tab

e|---------------------11--10--------------11--10----------------------------|
B|13--11--------11-13---------13-11---------------13-11----------------------|
G|-------12-------------------------12-------------------12------------------|
D|----------13---------------------------------------------------------------|
A|---------------------------------------------------------------------------|
E|---------------------------------------------------------------------------|

e|----------------------10---------------------------------------------------|
B|-------11----12---------------13--------------------------8----------------|
G|-10-12----12---12----------------------10-12-10--------8-------------------|
D|---------------------------------------------------------------------------|
A|---------------------------------------------------------------------------|
E|---------------------------------------------------------------------------|
Tap to rate this tab
# A B C D E F G H I J K L M N O P Q R S T U V W X Y Z