Guitaretab - guitar tabs
Song name
# A B C D E F G H I J K L M N O P Q R S T U V W X Y Z

Barcelona - Please Dont Go chords

Highlighted       Show chord diagrams
Another great song by Barcelona. Did this one completely by ear on the acoustic 
guitar so if there's any mistakes, please leave a comment and don't forget to rate.

Standard Tuning
Chords Used:
   A  C#m  E  Em  B  F#m7
e|-----4------------------|
B|-5---5---0--0---7---2---|
G|-6---6---1--0---8---2---|
D|-7---6---2--2---9---2---|
A|-7---4---2--2---9---4---|
E|-5-------0--0---7---2---|


Intro:

   A         C#m       A         C#m
e|------------4------------------4---------|
B|-5----------5---5----5---------5---5-----|
G|-6----------6-----6--6---------6-----6---|
D|-7----------6--------7---------6---------|
A|-7----------4--------7---------4---------|
E|-5-------------------5-------------------|
[ Tab from: http://www.guitaretab.com/b/barcelona/191809.html ]
A                                           C#m
All those arrows you threw, you threw them away
A                                   C#m
You kept falling in love, then one day
A                               C#m
When you fell, you fell towards me
A                                B
When you crashed in the clouds, you found me

E                Em      B          F#m7
Oh, please donít go      I want you so
E           Em           B         F#m7
I canít let go       For I lose control

A                                         C#m
Get these left handed lovers out of your way
A                                         C#m
They look hopeful but you, you should not stay
A                                             C#m
If you want me to break down and give you the keys
A                             B
I can do that but I canít let you leave

E                Em      B          F#m7
Oh, please donít go      I want you so
E           Em           B         F#m7
I canít let go       For I lose control
Related for Please Dont Go chords