Guitaretab - guitar tabs
Song name
# A B C D E F G H I J K L M N O P Q R S T U V W X Y Z

Barclay James Harvest - One Night tab

Barclay James Harvest - One Night
(from "Time Honoured Ghosts", 1975)

INTRO:

e|----------------------------15-------15-14-------
B|-------------------15----------------------17-15-
G|----------16-------------------------------------
D|-17-16-14-------14-------14-------14-------------
A|-------------------------------------------------   
E|-------------------------------------------------
[ Tab from: http://www.guitaretab.com/b/barclay-james-harvest/130278.html ]
e|----------------------------15-------15-14-------
B|-------------------15----------------------17-15-
G|----------16-------------------------------------
D|-17-16-14-------14-------14-------14-------------
A|-------------------------------------------------   
E|-------------------------------------------------

e|----------------------------15-------15-14-------
B|-------------------15----------------------17-15-
G|----------16-------------------------------------
D|-17-16-14-------14-------14-------14-------------
A|-------------------------------------------------   
E|-------------------------------------------------

e|----------------------------15-------15-14---------
B|-------------------15----------------------17-15---
G|----------16-------------------------------------16
D|-17-16-14-------14-------14-------14---------------
A|---------------------------------------------------    
E|---------------------------------------------------
Related for One Night tab
Advertisement will be closed in 10 seconds