Song name
# A B C D E F G H I J K L M N O P Q R S T U V W X Y Z

Bardo Pond - Every Man tab

I'm a super-novice, so nothing more than single notes for me thus far. Been bugged that 
find Bardo Pond tabs, so I finally gave this a shot.


------------------|
-------1----------|
-----2----2-3p2---|
-0----------------|
------------------|
------------------|

----------------------------------------|
----------1--------------------1--------|
--------2----22-3p2----------2---2-3p2--|
--0-------------------0-----------------|  x 2, or for the rest of the song
-----3--------------------3-------------|
----------------------------------------|
Tap to rate this tab
# A B C D E F G H I J K L M N O P Q R S T U V W X Y Z