Song name
# A B C D E F G H I J K L M N O P Q R S T U V W X Y Z

Barrett Syd - Milky Way tab

-------------------------------------------------------------------------------
			     Milky Way - L'arc en ciel
-------------------------------------------------------------------------------
Tabbed by:Evet Hestara
Email:eveuth_heisteiger@yahoo.com

This is my first tab ! ! I'm so happy ! Hehe..
Listen to the music and try to find the timing ya ! ^.^ mwamwamwa...

Tuning:eBGDAE

e|---------------------------------------------------------------------------|
B|----------------------------------------0----------------------------------|
G|--2---4--2-4-2-0-------0---------------------------------------------------|
D|--0----------------4--------4-----2----------------------------------------|
A|-------------------------------------3-------------------------------------|
E|---------------------------------------------------------------------------|

e|---------------------------------------------------------------------------|
B|---------------------------------------------------------------0-----------|
G|--7\5---5---5-5-4----4-4-2----2----4----2-4-2-0------0---------------------|
D|------------------------------0-------------------4-------2----------------|
A|------------------------------------------------------------3--------------|
E|---------------------------------------------------------------------------|

e|---------------------------------------------------------------------------|
B|---------------------------------------------------------------------------|
G|--2----4----2-4-2-0--------2/7----7-7----7-5-4-4\2-2----2-4---2-2----------|
D|--0--------------------4---------------------------------------------------|
A|---------------------------------------------------------------------------|
E|---------------------------------------------------------------------------|

e|------------------------------------0---------5-----5-------5-------5------|
B|-------------------------------3-------3-----------------------------------|
G|--0-0-2-2-0-------0----------0---2----------2-----2-----2-2---2-2-2--------|
D|-------------4------4-2--0-------------------------------------------------|
A|---------------------------------------------------------------------------|
E|---------------------------------------------------------------------------|

e|--------5-----2------------------------------------------------------------|
B|---------------------------------------------------------------------------|
G|--2-2-2---2-2--------------------------------------------------------------|
D|---------------------------------------------------------------------------|
A|---------------------------------------------------------------------------|
E|---------------------------------------------------------------------------|

| /  slide up
| \  slide down
| h  hammer-on
| p  pull-off
| ~  vibrato
| +  harmonic
| x  Mute note
===============================================================================
Tap to rate this tab
# A B C D E F G H I J K L M N O P Q R S T U V W X Y Z