Song name
# A B C D E F G H I J K L M N O P Q R S T U V W X Y Z

Basement Jaxx - Romeo tab

------------------------------
Dmaj7  Gmaj7  Bmin7  Emin7  A6
 10     3      7      0      5
 X      X      X      0      X
 11     4      7      2      4
 11     4      7      0      6
 10     3      7      0      5
 X      X      X      0      X


 Intro

============================================================================
E -----10----------3-----------7-----------0-----------10-------------------|
A --------------------------------------------------------------------------|
D ---------11----------4----------7-----------2------------11---------------|
G -------------11---------4----------7-----------0-----------------11-------|
B -------------10---------3----------7-----------0-----------------10-------|
e--------------------------------------------------------------9------------|
============================================================================



 Verse

    ...hold up                       baby I wish you'd make your mind up
==========================================================
E -----10------------3------------7------------0----------|
A --------------------------------------------------------|
D -----------11------------4-----------7------------2-----|
G -----------11------------4-----------7------------0-----|
B -----------10------------3-----------7------------0-----|
e --------------------------------------------------------|
==========================================================


 Chorus

   ...oooo                               let it all go...
==========================================================
E -----10------------3------------7------------5----------|
A --------------------------------------------------------|
D -----------11------------4-----------7------------4-----|
G -----------11------------4-----------7------------6-----|
B -----------10------------3-----------7------------5-----|
e --------------------------------------------------------|
==========================================================
Tap to rate this tab
# A B C D E F G H I J K L M N O P Q R S T U V W X Y Z