Baspok - Elisa tab

Baspok - Elisa

INTRO (x2)
e|-----3--------3--------3--------3--------2--------2--------2---------2---|
B|---5---5----5---5----5---5----5---5----2---2----2---2----2---2-----2---2-|
G|-4--------4--------4--------4--------2--------2--------2---------2-------|
D|-------------------------------------------------------------------------|
A|-------------------------------------------------------------------------|
E|-------------------------------------------------------------------------|

VERSO
e|-----3--------3--------3--------3--------2--------2--------2---------2---|
B|---5---5----5---5----5---5----5---5----2---2----2---2----2---2-----2---2-|
G|-4--------4--------4--------4--------2--------2--------2---------2-------|
D|-------------------------------------------------------------------------|
A|-------------------------------------------------------------------------|
E|-------------------------------------------------------------------------|

e|-----3--------3--------3--------3--------3--------3--------3----3--|
B|---3---3----3---3----3---3----3---3----3---3----3---3----3---3--3--|
G|-3--------3--------3--------3--------3--------3--------3--------3--|
D|-------------------------------------------------------------------|
A|-------------------------------------------------------------------|
E|-------------------------------------------------------------------|

ESTRIBILLO
e|--------------4--|
B|--------------4--|
G|--------------4--|
D|--6--7--6--7--6--|
A|--6--7--6--7--6--|
E|--4--5--4--5--4--|

RIFF
e|--------------------------|
B|--------------------------|
G|--------------------------|
D|--5-5/5-7-7/7-4-4/4-6-6/6-|
A|--5-5/5-7-7/7-4-4/4-6-6/6-|
E|--3-3/3-5-5/5-2-2/2-4-4/4-|

INTERLUDIO
e|--3----1--|
B|--3----1--|
G|--3----1--|x2
D|--5----3--|
A|--5----3--|
E|--3----1--|

FINAL
e|-----3--------3--------3--------3--------2--------2--------2-----2--|
B|---5---5----5---5----5---5----5---5----2---2----2---2----2---2---2--|
G|-4--------4--------4--------4--------2--------2--------2---------2--|
D|--------------------------------------------------------------------|
A|--------------------------------------------------------------------|
E|--------------------------------------------------------------------|

e|--------------------------|
B|--------------------------|
G|--------------------------|
D|--5-5/5-7-7/7-4-4/4-6-6/6-|
A|--5-5/5-7-7/7-4-4/4-6-6/6-|
E|--3-3/3-5-5/5-2-2/2-4-4/4-|


Tap to rate this tab
 
# A B C D E F G H I J K L M N O P Q R S T U V W X Y Z